999
DXF file: A07_multi-3X_2d.dxf
999
Pro/ENGINEER 2023494 by Parametric Technology Corporation
  0
SECTION
  2
HEADER
  9
$ACADVER
  1
AC1027
  9
$DWGCODEPAGE
  3
ANSI_1252
  9
$EXTMAX
 10
1782.0
 20
1260.0
 30
0.0
  9
$EXTMIN
 10
0.0
 20
0.0
 30
0.0
  9
$LIMMIN
 10
0.0
 20
0.0
  9
$LIMMAX
 10
1782.0
 20
1260.0
  9
$VIEWCTR
 10
891.0
 20
630.0
  9
$VIEWSIZE
 40
1260.0
  9
$CLAYER
  8
0
  9
$LTSCALE
 40
98.01
  9
$CELTYPE
  6
BYLAYER
  9
$DIMSCALE
 40
1.0
  9
$DIMASZ
 40
4.0
  9
$DIMEXO
 40
1.0
  9
$DIMDLI
 40
67.716
  9
$DIMEXE
 40
1.0
  9
$DIMCEN
 40
16.038
  9
$DIMLFAC
 40
1.0
  9
$DIMBLK
  1
_FILLED
  9
$DIMALT
 70
0
  9
$DIMALTF
 40
0.0393700787
  9
$DIMTXT
 40
3.0
  9
$DIMTOL
 70
1
  9
$DIMLIM
 70
0
  9
$DIMTFAC
 40
1.0
  9
$DIMTP
 40
0.001
  9
$DIMTM
 40
0.001
  9
$DIMGAP
 40
0.625
  9
$DIMDSEP
 70
46
  9
$AUNITS
 70
0
  9
$PDMODE
 70
3
  9
$PDSIZE
 40
0.3125
  9
$HANDSEED
  5
3C2
  9
$TILEMODE
 70
1
  9
$MEASUREMENT
 70
1
  9
$INSUNITS
 70
4
  0
ENDSEC
  0
SECTION
  2
CLASSES
  0
CLASS
  1
ACDBDICTIONARYWDFLT
  2
AcDbDictionaryWithDefault
  3
AutoCAD 2000
 90
0
 91
1
280
0
281
0
  0
CLASS
  1
ACDBPLACEHOLDER
  2
AcDbPlaceHolder
  3
AutoCAD 2000
 90
0
 91
1
280
0
281
0
  0
CLASS
  1
LAYOUT
  2
AcDbLayout
  3
AutoCAD 2000
 90
0
 91
0
280
0
281
0
  0
ENDSEC
  0
SECTION
  2
TABLES
  0
TABLE
  2
VPORT
  5
8
100
AcDbSymbolTable
 70
2
  0
VPORT
  5
1F4
100
AcDbSymbolTableRecord
100
AcDbViewportTableRecord
  2
*ACTIVE
 70
0
 10
0.0
 20
0.0
 11
1.0
 21
1.0
 12
891.0
 22
630.0
 13
0.0
 23
0.0
 14
1.0
 24
1.0
 15
0.0
 25
0.0
 16
0.0
 26
0.0
 36
1.0
 17
0.0
 27
0.0
 37
0.0
 40
1260.0
 41
1.4142857143
 42
50.0
 43
0.0
 44
0.0
 50
0.0
 51
0.0
 71
0
 72
100
 73
1
 74
1
 75
0
 76
0
 77
0
 78
0
  0
ENDTAB
  0
TABLE
  2
LTYPE
  5
5
100
AcDbSymbolTable
 70
6
  0
LTYPE
  5
14
100
AcDbSymbolTableRecord
100
AcDbLinetypeTableRecord
  2
BYBLOCK
 70
0
  3

 72
65
 73
0
 40
0.0
  0
LTYPE
  5
15
100
AcDbSymbolTableRecord
100
AcDbLinetypeTableRecord
  2
BYLAYER
 70
0
  3

 72
65
 73
0
 40
0.0
  0
LTYPE
  5
16
100
AcDbSymbolTableRecord
100
AcDbLinetypeTableRecord
  2
CONTINUOUS
 70
64
  3
Solid line
 72
65
 73
0
 40
0.0
  0
LTYPE
  5
1F5
100
AcDbSymbolTableRecord
100
AcDbLinetypeTableRecord
  2
CENTER
 70
64
  3
____ _ ____ _ ____ _ ____ _ ____ _ ____ _ ____
 72
65
 73
4
 40
0.6
 49
0.375
 74
0
 49
-0.075
 74
0
 49
0.075
 74
0
 49
-0.075
 74
0
  0
LTYPE
  5
1F6
100
AcDbSymbolTableRecord
100
AcDbLinetypeTableRecord
  2
HIDDEN
 70
64
  3
- - - - - - - - - - - - - - - - - - - -
 72
65
 73
2
 40
0.2
 49
0.1
 74
0
 49
-0.1
 74
0
  0
LTYPE
  5
1F7
100
AcDbSymbolTableRecord
100
AcDbLinetypeTableRecord
  2
PHANTOM
 70
64
  3
_____ _ _ _____ _ _ _____ _ _ _____
 72
65
 73
6
 40
0.8
 49
0.45
 74
0
 49
-0.05
 74
0
 49
0.1
 74
0
 49
-0.05
 74
0
 49
0.1
 74
0
 49
-0.05
 74
0
  0
LTYPE
  5
1F8
100
AcDbSymbolTableRecord
100
AcDbLinetypeTableRecord
  2
DOT
 70
64
  3
. . . . . . . . . . . . . . . . . . . .
 72
65
 73
2
 40
0.2
 49
0.1
 74
0
 49
-0.1
 74
0
  0
LTYPE
  5
1F9
100
AcDbSymbolTableRecord
100
AcDbLinetypeTableRecord
  2
DASHED
 70
64
  3
- - - - - - - - - - - - - - - - - - - -
 72
65
 73
2
 40
0.2
 49
0.1
 74
0
 49
-0.1
 74
0
  0
ENDTAB
  0
TABLE
  2
LAYER
  5
2
100
AcDbSymbolTable
 70
36
  0
LAYER
  5
10
100
AcDbSymbolTableRecord
100
AcDbLayerTableRecord
  2
0
 70
0
 62
7
  6
CONTINUOUS
370
-3
390
F
  0
LAYER
  5
1FA
100
AcDbSymbolTableRecord
100
AcDbLayerTableRecord
  2
DEFAULT_1
 70
0
 62
7
  6
CENTER
370
-3
390
F
  0
LAYER
  5
1FB
100
AcDbSymbolTableRecord
100
AcDbLayerTableRecord
  2
DEFAULT_2
 70
0
 62
8
  6
HIDDEN
370
-3
390
F
  0
LAYER
  5
1FC
100
AcDbSymbolTableRecord
100
AcDbLayerTableRecord
  2
DEFAULT_3
 70
0
 62
7
  6
PHANTOM
370
-3
390
F
  0
LAYER
  5
1FD
100
AcDbSymbolTableRecord
100
AcDbLayerTableRecord
  2
01TYA59Y05-1_2
 70
0
 62
7
  6
CONTINUOUS
370
-3
390
F
  0
LAYER
  5
1FE
100
AcDbSymbolTableRecord
100
AcDbLayerTableRecord
  2
01TYA59Y05-1_2_1
 70
0
 62
7
  6
CONTINUOUS
370
-3
390
F
  0
LAYER
  5
1FF
100
AcDbSymbolTableRecord
100
AcDbLayerTableRecord
  2
01TYA59Y05-1_2_2
 70
0
 62
7
  6
CONTINUOUS
370
-3
390
F
  0
LAYER
  5
200
100
AcDbSymbolTableRecord
100
AcDbLayerTableRecord
  2
01TYA59Y05-1_2_3
 70
0
 62
7
  6
CONTINUOUS
370
-3
390
F
  0
LAYER
  5
201
100
AcDbSymbolTableRecord
100
AcDbLayerTableRecord
  2
01TYA59Y05-1_2_4
 70
0
 62
7
  6
CONTINUOUS
370
-3
390
F
  0
LAYER
  5
202
100
AcDbSymbolTableRecord
100
AcDbLayerTableRecord
  2
01TYA59Y05-1_2_5
 70
0
 62
7
  6
CONTINUOUS
370
-3
390
F
  0
LAYER
  5
203
100
AcDbSymbolTableRecord
100
AcDbLayerTableRecord
  2
01TYA59Y05-2_5
 70
0
 62
7
  6
CONTINUOUS
370
-3
390
F
  0
LAYER
  5
204
100
AcDbSymbolTableRecord
100
AcDbLayerTableRecord
  2
01TYA59Y05-2_5_1
 70
0
 62
7
  6
CONTINUOUS
370
-3
390
F
  0
LAYER
  5
205
100
AcDbSymbolTableRecord
100
AcDbLayerTableRecord
  2
01TYA59Y05-2_5_2
 70
0
 62
7
  6
CONTINUOUS
370
-3
390
F
  0
LAYER
  5
206
100
AcDbSymbolTableRecord
100
AcDbLayerTableRecord
  2
1_ALL_PLANES
 70
0
 62
7
  6
CONTINUOUS
370
-3
390
F
  0
LAYER
  5
207
100
AcDbSymbolTableRecord
100
AcDbLayerTableRecord
  2
1__DEF_PLANES
 70
0
 62
7
  6
CONTINUOUS
370
-3
390
F
  0
LAYER
  5
208
100
AcDbSymbolTableRecord
100
AcDbLayerTableRecord
  2
2_ALL_CSYS
 70
0
 62
7
  6
CONTINUOUS
370
-3
390
F
  0
LAYER
  5
209
100
AcDbSymbolTableRecord
100
AcDbLayerTableRecord
  2
2__DEF_CSYS
 70
0
 62
7
  6
CONTINUOUS
370
-3
390
F
  0
LAYER
  5
20A
100
AcDbSymbolTableRecord
100
AcDbLayerTableRecord
  2
860600100213_RONDELLA_M3_ZINC_1
 70
0
 62
7
  6
CONTINUOUS
370
-3
390
F
  0
LAYER
  5
20B
100
AcDbSymbolTableRecord
100
AcDbLayerTableRecord
  2
860600100213_RONDELLA_M3_ZINC_2
 70
0
 62
7
  6
CONTINUOUS
370
-3
390
F
  0
LAYER
  5
20C
100
AcDbSymbolTableRecord
100
AcDbLayerTableRecord
  2
860600100213_RONDELLA_M3_ZINC_3
 70
0
 62
7
  6
CONTINUOUS
370
-3
390
F
  0
LAYER
  5
20D
100
AcDbSymbolTableRecord
100
AcDbLayerTableRecord
  2
860600100213_RONDELLA_M3_ZINC_4
 70
0
 62
7
  6
CONTINUOUS
370
-3
390
F
  0
LAYER
  5
20E
100
AcDbSymbolTableRecord
100
AcDbLayerTableRecord
  2
860600100213_RONDELLA_M3_ZINC_5
 70
0
 62
7
  6
CONTINUOUS
370
-3
390
F
  0
LAYER
  5
20F
100
AcDbSymbolTableRecord
100
AcDbLayerTableRecord
  2
A0701004_D200_CLUSTER_ASM_6
 70
0
 62
7
  6
CONTINUOUS
370
-3
390
F
  0
LAYER
  5
210
100
AcDbSymbolTableRecord
100
AcDbLayerTableRecord
  2
A0701004_D200_CLUSTER_ASM_6_1
 70
0
 62
7
  6
CONTINUOUS
370
-3
390
F
  0
LAYER
  5
211
100
AcDbSymbolTableRecord
100
AcDbLayerTableRecord
  2
A0701004_D200_CLUSTER_ASM_6_2
 70
0
 62
7
  6
CONTINUOUS
370
-3
390
F
  0
LAYER
  5
212
100
AcDbSymbolTableRecord
100
AcDbLayerTableRecord
  2
A0707004_LENTE_60_4
 70
0
 62
7
  6
CONTINUOUS
370
-3
390
F
  0
LAYER
  5
213
100
AcDbSymbolTableRecord
100
AcDbLayerTableRecord
  2
A0707004_LENTE_60_4_1
 70
0
 62
7
  6
CONTINUOUS
370
-3
390
F
  0
LAYER
  5
214
100
AcDbSymbolTableRecord
100
AcDbLayerTableRecord
  2
A0707004_LENTE_60_4_2
 70
0
 62
7
  6
CONTINUOUS
370
-3
390
F
  0
LAYER
  5
215
100
AcDbSymbolTableRecord
100
AcDbLayerTableRecord
  2
A0707005_TORNITO_PORTALENTE_8
 70
0
 62
7
  6
CONTINUOUS
370
-3
390
F
  0
LAYER
  5
216
100
AcDbSymbolTableRecord
100
AcDbLayerTableRecord
  2
A0707005_TORNITO_PORTALENTE_8_1
 70
0
 62
7
  6
CONTINUOUS
370
-3
390
F
  0
LAYER
  5
217
100
AcDbSymbolTableRecord
100
AcDbLayerTableRecord
  2
A0707005_TORNITO_PORTALENTE_8_2
 70
0
 62
7
  6
CONTINUOUS
370
-3
390
F
  0
LAYER
  5
218
100
AcDbSymbolTableRecord
100
AcDbLayerTableRecord
  2
A0707006_RIFLETTORE-HOLDER_25
 70
0
 62
7
  6
CONTINUOUS
370
-3
390
F
  0
LAYER
  5
219
100
AcDbSymbolTableRecord
100
AcDbLayerTableRecord
  2
A0707006_RIFLETTORE-HOLDER_25_1
 70
0
 62
7
  6
CONTINUOUS
370
-3
390
F
  0
LAYER
  5
21A
100
AcDbSymbolTableRecord
100
AcDbLayerTableRecord
  2
A0707006_RIFLETTORE-HOLDER_25_2
 70
0
 62
7
  6
CONTINUOUS
370
-3
390
F
  0
LAYER
  5
21B
100
AcDbSymbolTableRecord
100
AcDbLayerTableRecord
  2
A0707007_PIASTRA_FILETTATURE_12
 70
0
 62
7
  6
CONTINUOUS
370
-3
390
F
  0
LAYER
  5
21C
100
AcDbSymbolTableRecord
100
AcDbLayerTableRecord
  2
A0707007_PIASTRA_FILETTATURE__1
 70
0
 62
7
  6
CONTINUOUS
370
-3
390
F
  0
LAYER
  5
21D
100
AcDbSymbolTableRecord
100
AcDbLayerTableRecord
  2
A0707007_PIASTRA_FILETTATURE__2
 70
0
 62
7
  6
CONTINUOUS
370
-3
390
F
  0
LAYER
  5
21E
100
AcDbSymbolTableRecord
100
AcDbLayerTableRecord
  2
A0707008_COPERCHIO-ATTACCHI_9
 70
0
 62
7
  6
CONTINUOUS
370
-3
390
F
  0
LAYER
  5
21F
100
AcDbSymbolTableRecord
100
AcDbLayerTableRecord
  2
A0707008_COPERCHIO-ATTACCHI_9_1
 70
0
 62
7
  6
CONTINUOUS
370
-3
390
F
  0
LAYER
  5
220
100
AcDbSymbolTableRecord
100
AcDbLayerTableRecord
  2
A0707008_COPERCHIO-ATTACCHI_9_2
 70
0
 62
7
  6
CONTINUOUS
370
-3
390
F
  0
LAYER
  5
221
100
AcDbSymbolTableRecord
100
AcDbLayerTableRecord
  2
A0707009_TUB-SOSP-370_14
 70
0
 62
7
  6
CONTINUOUS
370
-3
390
F
  0
LAYER
  5
222
100
AcDbSymbolTableRecord
100
AcDbLayerTableRecord
  2
A0707009_TUB-SOSP-370_14_1
 70
0
 62
7
  6
CONTINUOUS
370
-3
390
F
  0
LAYER
  5
223
100
AcDbSymbolTableRecord
100
AcDbLayerTableRecord
  2
A0707009_TUB-SOSP-370_14_2
 70
0
 62
7
  6
CONTINUOUS
370
-3
390
F
  0
LAYER
  5
224
100
AcDbSymbolTableRecord
100
AcDbLayerTableRecord
  2
A0707014_MOLLA-TORN-PORTALENTE_
 70
0
 62
7
  6
CONTINUOUS
370
-3
390
F
  0
LAYER
  5
225
100
AcDbSymbolTableRecord
100
AcDbLayerTableRecord
  2
A0707014_MOLLA-TORN-PORTALENT_1
 70
0
 62
7
  6
CONTINUOUS
370
-3
390
F
  0
LAYER
  5
226
100
AcDbSymbolTableRecord
100
AcDbLayerTableRecord
  2
A0707014_MOLLA-TORN-PORTALENT_2
 70
0
 62
7
  6
CONTINUOUS
370
-3
390
F
  0
LAYER
  5
227
100
AcDbSymbolTableRecord
100
AcDbLayerTableRecord
  2
A0707014_MOLLA-TORN-PORTALENT_3
 70
0
 62
7
  6
CONTINUOUS
370
-3
390
F
  0
LAYER
  5
228
100
AcDbSymbolTableRecord
100
AcDbLayerTableRecord
  2
A0707014_MOLLA-TORN-PORTALENT_4
 70
0
 62
7
  6
CONTINUOUS
370
-3
390
F
  0
LAYER
  5
229
100
AcDbSymbolTableRecord
100
AcDbLayerTableRecord
  2
A0707014_MOLLA-TORN-PORTALENT_5
 70
0
 62
7
  6
CONTINUOUS
370
-3
390
F
  0
LAYER
  5
22A
100
AcDbSymbolTableRecord
100
AcDbLayerTableRecord
  2
A0707015_CAPPELLO-D200_CLUSTER_
 70
0
 62
7
  6
CONTINUOUS
370
-3
390
F
  0
LAYER
  5
22B
100
AcDbSymbolTableRecord
100
AcDbLayerTableRecord
  2
A0707015_CAPPELLO-D200_CLUSTE_1
 70
0
 62
7
  6
CONTINUOUS
370
-3
390
F
  0
LAYER
  5
22C
100
AcDbSymbolTableRecord
100
AcDbLayerTableRecord
  2
A0707015_CAPPELLO-D200_CLUSTE_2
 70
0
 62
7
  6
CONTINUOUS
370
-3
390
F
  0
LAYER
  5
22D
100
AcDbSymbolTableRecord
100
AcDbLayerTableRecord
  2
A0707027_DISCHETTO-MAKROFOL_3
 70
0
 62
7
  6
CONTINUOUS
370
-3
390
F
  0
LAYER
  5
22E
100
AcDbSymbolTableRecord
100
AcDbLayerTableRecord
  2
A0707027_DISCHETTO-MAKROFOL_3_1
 70
0
 62
7
  6
CONTINUOUS
370
-3
390
F
  0
LAYER
  5
22F
100
AcDbSymbolTableRecord
100
AcDbLayerTableRecord
  2
A0707027_DISCHETTO-MAKROFOL_3_2
 70
0
 62
7
  6
CONTINUOUS
370
-3
390
F
  0
LAYER
  5
230
100
AcDbSymbolTableRecord
100
AcDbLayerTableRecord
  2
A0707032_BLOC-DIST-MOR_NO_MORS_
 70
0
 62
7
  6
CONTINUOUS
370
-3
390
F
  0
LAYER
  5
231
100
AcDbSymbolTableRecord
100
AcDbLayerTableRecord
  2
A0707032_BLOC-DIST-MOR_NO_MOR_1
 70
0
 62
7
  6
CONTINUOUS
370
-3
390
F
  0
LAYER
  5
232
100
AcDbSymbolTableRecord
100
AcDbLayerTableRecord
  2
A0707032_BLOC-DIST-MOR_NO_MOR_2
 70
0
 62
7
  6
CONTINUOUS
370
-3
390
F
  0
LAYER
  5
233
100
AcDbSymbolTableRecord
100
AcDbLayerTableRecord
  2
A0707032_BLOC-DIST-MOR_SOLO_MOR
 70
0
 62
7
  6
CONTINUOUS
370
-3
390
F
  0
LAYER
  5
234
100
AcDbSymbolTableRecord
100
AcDbLayerTableRecord
  2
A0707032_BLOC-DIST-MOR_SOLO_M_1
 70
0
 62
7
  6
CONTINUOUS
370
-3
390
F
  0
LAYER
  5
235
100
AcDbSymbolTableRecord
100
AcDbLayerTableRecord
  2
A0707032_BLOC-DIST-MOR_SOLO_M_2
 70
0
 62
7
  6
CONTINUOUS
370
-3
390
F
  0
LAYER
  5
236
100
AcDbSymbolTableRecord
100
AcDbLayerTableRecord
  2
A0707050_STAFFA-CLUSTER_8
 70
0
 62
7
  6
CONTINUOUS
370
-3
390
F
  0
LAYER
  5
237
100
AcDbSymbolTableRecord
100
AcDbLayerTableRecord
  2
A0707051_COPERTURA-CLUSTER-3_12
 70
0
 62
7
  6
CONTINUOUS
370
-3
390
F
  0
LAYER
  5
238
100
AcDbSymbolTableRecord
100
AcDbLayerTableRecord
  2
A0707052_STAFFA-SOSP-CLUSTER_4
 70
0
 62
7
  6
CONTINUOUS
370
-3
390
F
  0
LAYER
  5
239
100
AcDbSymbolTableRecord
100
AcDbLayerTableRecord
  2
A0707053_CONETTO-BLOC-CLUSTER_1
 70
0
 62
7
  6
CONTINUOUS
370
-3
390
F
  0
LAYER
  5
23A
100
AcDbSymbolTableRecord
100
AcDbLayerTableRecord
  2
A0707053_CONETTO-BLOC-CLUSTER_2
 70
0
 62
7
  6
CONTINUOUS
370
-3
390
F
  0
LAYER
  5
23B
100
AcDbSymbolTableRecord
100
AcDbLayerTableRecord
  2
A0707054_TESTATA-CLUSTER_17
 70
0
 62
7
  6
CONTINUOUS
370
-3
390
F
  0
LAYER
  5
23C
100
AcDbSymbolTableRecord
100
AcDbLayerTableRecord
  2
A0707054_TESTATA-CLUSTER_17_1
 70
0
 62
7
  6
CONTINUOUS
370
-3
390
F
  0
LAYER
  5
23D
100
AcDbSymbolTableRecord
100
AcDbLayerTableRecord
  2
A0707057_MOLLA-SOSP_11
 70
0
 62
7
  6
CONTINUOUS
370
-3
390
F
  0
LAYER
  5
23E
100
AcDbSymbolTableRecord
100
AcDbLayerTableRecord
  2
A0707059_BLOC-CLUSTER53_13
 70
0
 62
7
  6
CONTINUOUS
370
-3
390
F
  0
LAYER
  5
23F
100
AcDbSymbolTableRecord
100
AcDbLayerTableRecord
  2
A070E032_DATI-A07S20-SOSP-CAVOW
 70
0
 62
7
  6
CONTINUOUS
370
-3
390
F
  0
LAYER
  5
240
100
AcDbSymbolTableRecord
100
AcDbLayerTableRecord
  2
A070E032_DATI-A07S20-SOSP-CAV_1
 70
0
 62
7
  6
CONTINUOUS
370
-3
390
F
  0
LAYER
  5
241
100
AcDbSymbolTableRecord
100
AcDbLayerTableRecord
  2
A070E032_DATI-A07S20-SOSP-CAV_2
 70
0
 62
7
  6
CONTINUOUS
370
-3
390
F
  0
LAYER
  5
242
100
AcDbSymbolTableRecord
100
AcDbLayerTableRecord
  2
ALL_AXES
 70
0
 62
7
  6
CONTINUOUS
370
-3
390
F
  0
LAYER
  5
243
100
AcDbSymbolTableRecord
100
AcDbLayerTableRecord
  2
ALL_FEATURES
 70
0
 62
7
  6
CONTINUOUS
370
-3
390
F
  0
LAYER
  5
244
100
AcDbSymbolTableRecord
100
AcDbLayerTableRecord
  2
D9607041_TAPE_DISS_LED_16
 70
0
 62
7
  6
CONTINUOUS
370
-3
390
F
  0
LAYER
  5
245
100
AcDbSymbolTableRecord
100
AcDbLayerTableRecord
  2
D9607041_TAPE_DISS_LED_16_1
 70
0
 62
7
  6
CONTINUOUS
370
-3
390
F
  0
LAYER
  5
246
100
AcDbSymbolTableRecord
100
AcDbLayerTableRecord
  2
D9607041_TAPE_DISS_LED_16_2
 70
0
 62
7
  6
CONTINUOUS
370
-3
390
F
  0
LAYER
  5
247
100
AcDbSymbolTableRecord
100
AcDbLayerTableRecord
  2
DADO-ESAG-M3-ZINC_22
 70
0
 62
7
  6
CONTINUOUS
370
-3
390
F
  0
LAYER
  5
248
100
AcDbSymbolTableRecord
100
AcDbLayerTableRecord
  2
DADO-ESAG-M3-ZINC_22_1
 70
0
 62
7
  6
CONTINUOUS
370
-3
390
F
  0
LAYER
  5
249
100
AcDbSymbolTableRecord
100
AcDbLayerTableRecord
  2
DADO-ESAG-M3-ZINC_22_10
 70
0
 62
7
  6
CONTINUOUS
370
-3
390
F
  0
LAYER
  5
24A
100
AcDbSymbolTableRecord
100
AcDbLayerTableRecord
  2
DADO-ESAG-M3-ZINC_22_11
 70
0
 62
7
  6
CONTINUOUS
370
-3
390
F
  0
LAYER
  5
24B
100
AcDbSymbolTableRecord
100
AcDbLayerTableRecord
  2
DADO-ESAG-M3-ZINC_22_2
 70
0
 62
7
  6
CONTINUOUS
370
-3
390
F
  0
LAYER
  5
24C
100
AcDbSymbolTableRecord
100
AcDbLayerTableRecord
  2
DADO-ESAG-M3-ZINC_22_3
 70
0
 62
7
  6
CONTINUOUS
370
-3
390
F
  0
LAYER
  5
24D
100
AcDbSymbolTableRecord
100
AcDbLayerTableRecord
  2
DADO-ESAG-M3-ZINC_22_4
 70
0
 62
7
  6
CONTINUOUS
370
-3
390
F
  0
LAYER
  5
24E
100
AcDbSymbolTableRecord
100
AcDbLayerTableRecord
  2
DADO-ESAG-M3-ZINC_22_5
 70
0
 62
7
  6
CONTINUOUS
370
-3
390
F
  0
LAYER
  5
24F
100
AcDbSymbolTableRecord
100
AcDbLayerTableRecord
  2
DADO-ESAG-M3-ZINC_22_6
 70
0
 62
7
  6
CONTINUOUS
370
-3
390
F
  0
LAYER
  5
250
100
AcDbSymbolTableRecord
100
AcDbLayerTableRecord
  2
DADO-ESAG-M3-ZINC_22_7
 70
0
 62
7
  6
CONTINUOUS
370
-3
390
F
  0
LAYER
  5
251
100
AcDbSymbolTableRecord
100
AcDbLayerTableRecord
  2
DADO-ESAG-M3-ZINC_22_8
 70
0
 62
7
  6
CONTINUOUS
370
-3
390
F
  0
LAYER
  5
252
100
AcDbSymbolTableRecord
100
AcDbLayerTableRecord
  2
DADO-ESAG-M3-ZINC_22_9
 70
0
 62
7
  6
CONTINUOUS
370
-3
390
F
  0
LAYER
  5
253
100
AcDbSymbolTableRecord
100
AcDbLayerTableRecord
  2
DIST_STEAB_5015-6-4_4
 70
0
 62
7
  6
CONTINUOUS
370
-3
390
F
  0
LAYER
  5
254
100
AcDbSymbolTableRecord
100
AcDbLayerTableRecord
  2
DIST_STEAB_5015-6-4_4_1
 70
0
 62
7
  6
CONTINUOUS
370
-3
390
F
  0
LAYER
  5
255
100
AcDbSymbolTableRecord
100
AcDbLayerTableRecord
  2
DIST_STEAB_5015-6-4_4_2
 70
0
 62
7
  6
CONTINUOUS
370
-3
390
F
  0
LAYER
  5
256
100
AcDbSymbolTableRecord
100
AcDbLayerTableRecord
  2
GRANO_UNI_5923_2-5X3_ZINC_50
 70
0
 62
7
  6
CONTINUOUS
370
-3
390
F
  0
LAYER
  5
257
100
AcDbSymbolTableRecord
100
AcDbLayerTableRecord
  2
GRANO_UNI_5923_2-5X3_ZINC_50_1
 70
0
 62
7
  6
CONTINUOUS
370
-3
390
F
  0
LAYER
  5
258
100
AcDbSymbolTableRecord
100
AcDbLayerTableRecord
  2
GRANO_UNI_5923_2-5X3_ZINC_50_10
 70
0
 62
7
  6
CONTINUOUS
370
-3
390
F
  0
LAYER
  5
259
100
AcDbSymbolTableRecord
100
AcDbLayerTableRecord
  2
GRANO_UNI_5923_2-5X3_ZINC_50_11
 70
0
 62
7
  6
CONTINUOUS
370
-3
390
F
  0
LAYER
  5
25A
100
AcDbSymbolTableRecord
100
AcDbLayerTableRecord
  2
GRANO_UNI_5923_2-5X3_ZINC_50_2
 70
0
 62
7
  6
CONTINUOUS
370
-3
390
F
  0
LAYER
  5
25B
100
AcDbSymbolTableRecord
100
AcDbLayerTableRecord
  2
GRANO_UNI_5923_2-5X3_ZINC_50_3
 70
0
 62
7
  6
CONTINUOUS
370
-3
390
F
  0
LAYER
  5
25C
100
AcDbSymbolTableRecord
100
AcDbLayerTableRecord
  2
GRANO_UNI_5923_2-5X3_ZINC_50_4
 70
0
 62
7
  6
CONTINUOUS
370
-3
390
F
  0
LAYER
  5
25D
100
AcDbSymbolTableRecord
100
AcDbLayerTableRecord
  2
GRANO_UNI_5923_2-5X3_ZINC_50_5
 70
0
 62
7
  6
CONTINUOUS
370
-3
390
F
  0
LAYER
  5
25E
100
AcDbSymbolTableRecord
100
AcDbLayerTableRecord
  2
GRANO_UNI_5923_2-5X3_ZINC_50_6
 70
0
 62
7
  6
CONTINUOUS
370
-3
390
F
  0
LAYER
  5
25F
100
AcDbSymbolTableRecord
100
AcDbLayerTableRecord
  2
GRANO_UNI_5923_2-5X3_ZINC_50_7
 70
0
 62
7
  6
CONTINUOUS
370
-3
390
F
  0
LAYER
  5
260
100
AcDbSymbolTableRecord
100
AcDbLayerTableRecord
  2
GRANO_UNI_5923_2-5X3_ZINC_50_8
 70
0
 62
7
  6
CONTINUOUS
370
-3
390
F
  0
LAYER
  5
261
100
AcDbSymbolTableRecord
100
AcDbLayerTableRecord
  2
GRANO_UNI_5923_2-5X3_ZINC_50_9
 70
0
 62
7
  6
CONTINUOUS
370
-3
390
F
  0
LAYER
  5
262
100
AcDbSymbolTableRecord
100
AcDbLayerTableRecord
  2
LED_SLM_1208_L15_2024_G7_927_10
 70
0
 62
7
  6
CONTINUOUS
370
-3
390
F
  0
LAYER
  5
263
100
AcDbSymbolTableRecord
100
AcDbLayerTableRecord
  2
LED_SLM_1208_L15_2024_G7_927__1
 70
0
 62
7
  6
CONTINUOUS
370
-3
390
F
  0
LAYER
  5
264
100
AcDbSymbolTableRecord
100
AcDbLayerTableRecord
  2
LED_SLM_1208_L15_2024_G7_927__2
 70
0
 62
7
  6
CONTINUOUS
370
-3
390
F
  0
LAYER
  5
265
100
AcDbSymbolTableRecord
100
AcDbLayerTableRecord
  2
MORSETTINO_PA35_NOVIT_8
 70
0
 62
7
  6
CONTINUOUS
370
-3
390
F
  0
LAYER
  5
266
100
AcDbSymbolTableRecord
100
AcDbLayerTableRecord
  2
MORSETTINO_PA35_NOVIT_8_1
 70
0
 62
7
  6
CONTINUOUS
370
-3
390
F
  0
LAYER
  5
267
100
AcDbSymbolTableRecord
100
AcDbLayerTableRecord
  2
MORSETTINO_PA35_NOVIT_8_2
 70
0
 62
7
  6
CONTINUOUS
370
-3
390
F
  0
LAYER
  5
268
100
AcDbSymbolTableRecord
100
AcDbLayerTableRecord
  2
MORSETTINO_PA35_NOVIT_8_3
 70
0
 62
7
  6
CONTINUOUS
370
-3
390
F
  0
LAYER
  5
269
100
AcDbSymbolTableRecord
100
AcDbLayerTableRecord
  2
MORSETTINO_PA35_NOVIT_8_4
 70
0
 62
7
  6
CONTINUOUS
370
-3
390
F
  0
LAYER
  5
26A
100
AcDbSymbolTableRecord
100
AcDbLayerTableRecord
  2
MORSETTINO_PA35_NOVIT_8_5
 70
0
 62
7
  6
CONTINUOUS
370
-3
390
F
  0
LAYER
  5
26B
100
AcDbSymbolTableRecord
100
AcDbLayerTableRecord
  2
VITE-PT-WN1412-KA30X12_29
 70
0
 62
7
  6
CONTINUOUS
370
-3
390
F
  0
LAYER
  5
26C
100
AcDbSymbolTableRecord
100
AcDbLayerTableRecord
  2
VITE-PT-WN1412-KA30X12_29_1
 70
0
 62
7
  6
CONTINUOUS
370
-3
390
F
  0
LAYER
  5
26D
100
AcDbSymbolTableRecord
100
AcDbLayerTableRecord
  2
VITE-PTWN1412_KA30X06_19
 70
0
 62
7
  6
CONTINUOUS
370
-3
390
F
  0
LAYER
  5
26E
100
AcDbSymbolTableRecord
100
AcDbLayerTableRecord
  2
VITE-PTWN1412_KA30X06_19_1
 70
0
 62
7
  6
CONTINUOUS
370
-3
390
F
  0
LAYER
  5
26F
100
AcDbSymbolTableRecord
100
AcDbLayerTableRecord
  2
VITE-TSC-M3X10-ZINC_50
 70
0
 62
7
  6
CONTINUOUS
370
-3
390
F
  0
LAYER
  5
270
100
AcDbSymbolTableRecord
100
AcDbLayerTableRecord
  2
VITE-TSC-M3X10-ZINC_50_1
 70
0
 62
7
  6
CONTINUOUS
370
-3
390
F
  0
LAYER
  5
271
100
AcDbSymbolTableRecord
100
AcDbLayerTableRecord
  2
VITE-TSC-M3X10-ZINC_50_10
 70
0
 62
7
  6
CONTINUOUS
370
-3
390
F
  0
LAYER
  5
272
100
AcDbSymbolTableRecord
100
AcDbLayerTableRecord
  2
VITE-TSC-M3X10-ZINC_50_11
 70
0
 62
7
  6
CONTINUOUS
370
-3
390
F
  0
LAYER
  5
273
100
AcDbSymbolTableRecord
100
AcDbLayerTableRecord
  2
VITE-TSC-M3X10-ZINC_50_2
 70
0
 62
7
  6
CONTINUOUS
370
-3
390
F
  0
LAYER
  5
274
100
AcDbSymbolTableRecord
100
AcDbLayerTableRecord
  2
VITE-TSC-M3X10-ZINC_50_3
 70
0
 62
7
  6
CONTINUOUS
370
-3
390
F
  0
LAYER
  5
275
100
AcDbSymbolTableRecord
100
AcDbLayerTableRecord
  2
VITE-TSC-M3X10-ZINC_50_4
 70
0
 62
7
  6
CONTINUOUS
370
-3
390
F
  0
LAYER
  5
276
100
AcDbSymbolTableRecord
100
AcDbLayerTableRecord
  2
VITE-TSC-M3X10-ZINC_50_5
 70
0
 62
7
  6
CONTINUOUS
370
-3
390
F
  0
LAYER
  5
277
100
AcDbSymbolTableRecord
100
AcDbLayerTableRecord
  2
VITE-TSC-M3X10-ZINC_50_6
 70
0
 62
7
  6
CONTINUOUS
370
-3
390
F
  0
LAYER
  5
278
100
AcDbSymbolTableRecord
100
AcDbLayerTableRecord
  2
VITE-TSC-M3X10-ZINC_50_7
 70
0
 62
7
  6
CONTINUOUS
370
-3
390
F
  0
LAYER
  5
279
100
AcDbSymbolTableRecord
100
AcDbLayerTableRecord
  2
VITE-TSC-M3X10-ZINC_50_8
 70
0
 62
7
  6
CONTINUOUS
370
-3
390
F
  0
LAYER
  5
27A
100
AcDbSymbolTableRecord
100
AcDbLayerTableRecord
  2
VITE-TSC-M3X10-ZINC_50_9
 70
0
 62
7
  6
CONTINUOUS
370
-3
390
F
  0
LAYER
  5
27B
100
AcDbSymbolTableRecord
100
AcDbLayerTableRecord
  2
VITE-TSC-M3X12-ZINC_50
 70
0
 62
7
  6
CONTINUOUS
370
-3
390
F
  0
LAYER
  5
27C
100
AcDbSymbolTableRecord
100
AcDbLayerTableRecord
  2
VITE-TSC-M3X12-ZINC_50_1
 70
0
 62
7
  6
CONTINUOUS
370
-3
390
F
  0
LAYER
  5
27D
100
AcDbSymbolTableRecord
100
AcDbLayerTableRecord
  2
VITE-TSC-M3X12-ZINC_50_2
 70
0
 62
7
  6
CONTINUOUS
370
-3
390
F
  0
LAYER
  5
27E
100
AcDbSymbolTableRecord
100
AcDbLayerTableRecord
  2
VITE-TSC-M3X12-ZINC_50_3
 70
0
 62
7
  6
CONTINUOUS
370
-3
390
F
  0
LAYER
  5
27F
100
AcDbSymbolTableRecord
100
AcDbLayerTableRecord
  2
VITE-TSC-M3X12-ZINC_50_4
 70
0
 62
7
  6
CONTINUOUS
370
-3
390
F
  0
LAYER
  5
280
100
AcDbSymbolTableRecord
100
AcDbLayerTableRecord
  2
VITE-TSC-M3X12-ZINC_50_5
 70
0
 62
7
  6
CONTINUOUS
370
-3
390
F
  0
LAYER
  5
281
100
AcDbSymbolTableRecord
100
AcDbLayerTableRecord
  2
VITE-TSC-M4X16-ZINC_50
 70
0
 62
7
  6
CONTINUOUS
370
-3
390
F
  0
LAYER
  5
282
100
AcDbSymbolTableRecord
100
AcDbLayerTableRecord
  2
VITE-TSC-M4X16-ZINC_50_1
 70
0
 62
7
  6
CONTINUOUS
370
-3
390
F
  0
LAYER
  5
283
100
AcDbSymbolTableRecord
100
AcDbLayerTableRecord
  2
VITE-TSC-M4X16-ZINC_50_10
 70
0
 62
7
  6
CONTINUOUS
370
-3
390
F
  0
LAYER
  5
284
100
AcDbSymbolTableRecord
100
AcDbLayerTableRecord
  2
VITE-TSC-M4X16-ZINC_50_11
 70
0
 62
7
  6
CONTINUOUS
370
-3
390
F
  0
LAYER
  5
285
100
AcDbSymbolTableRecord
100
AcDbLayerTableRecord
  2
VITE-TSC-M4X16-ZINC_50_2
 70
0
 62
7
  6
CONTINUOUS
370
-3
390
F
  0
LAYER
  5
286
100
AcDbSymbolTableRecord
100
AcDbLayerTableRecord
  2
VITE-TSC-M4X16-ZINC_50_3
 70
0
 62
7
  6
CONTINUOUS
370
-3
390
F
  0
LAYER
  5
287
100
AcDbSymbolTableRecord
100
AcDbLayerTableRecord
  2
VITE-TSC-M4X16-ZINC_50_4
 70
0
 62
7
  6
CONTINUOUS
370
-3
390
F
  0
LAYER
  5
288
100
AcDbSymbolTableRecord
100
AcDbLayerTableRecord
  2
VITE-TSC-M4X16-ZINC_50_5
 70
0
 62
7
  6
CONTINUOUS
370
-3
390
F
  0
LAYER
  5
289
100
AcDbSymbolTableRecord
100
AcDbLayerTableRecord
  2
VITE-TSC-M4X16-ZINC_50_6
 70
0
 62
7
  6
CONTINUOUS
370
-3
390
F
  0
LAYER
  5
28A
100
AcDbSymbolTableRecord
100
AcDbLayerTableRecord
  2
VITE-TSC-M4X16-ZINC_50_7
 70
0
 62
7
  6
CONTINUOUS
370
-3
390
F
  0
LAYER
  5
28B
100
AcDbSymbolTableRecord
100
AcDbLayerTableRecord
  2
VITE-TSC-M4X16-ZINC_50_8
 70
0
 62
7
  6
CONTINUOUS
370
-3
390
F
  0
LAYER
  5
28C
100
AcDbSymbolTableRecord
100
AcDbLayerTableRecord
  2
VITE-TSC-M4X16-ZINC_50_9
 70
0
 62
7
  6
CONTINUOUS
370
-3
390
F
  0
LAYER
  5
28D
100
AcDbSymbolTableRecord
100
AcDbLayerTableRecord
  2
WAGO_221_412_10
 70
0
 62
7
  6
CONTINUOUS
370
-3
390
F
  0
LAYER
  5
28E
100
AcDbSymbolTableRecord
100
AcDbLayerTableRecord
  2
WAGO_221_412_10_1
 70
0
 62
7
  6
CONTINUOUS
370
-3
390
F
  0
ENDTAB
  0
TABLE
  2
STYLE
  5
3
100
AcDbSymbolTable
 70
1
  0
STYLE
  5
11
100
AcDbSymbolTableRecord
100
AcDbTextStyleTableRecord
  2
STANDARD
 70
0
 40
0.0
 41
1.0
 50
0.0
 71
0
 42
0.2
  3
trium.ttf
  4

1001
ACAD
1000
CG Triumvirate
1071
34
  0
STYLE
  5
28F
100
AcDbSymbolTableRecord
100
AcDbTextStyleTableRecord
  2
TEXTSTYLE_1
 70
0
 40
0.0
 41
0.8
 50
0.0
 71
0
 42
0.2
  3
gdt
  4

  0
ENDTAB
  0
TABLE
  2
VIEW
  5
6
100
AcDbSymbolTable
 70
0
  0
ENDTAB
  0
TABLE
  2
UCS
  5
7
100
AcDbSymbolTable
 70
0
  0
ENDTAB
  0
TABLE
  2
APPID
  5
9
100
AcDbSymbolTable
 70
1
  0
APPID
  5
290
100
AcDbSymbolTableRecord
100
AcDbRegAppTableRecord
  2
ACAD
 70
0
  0
ENDTAB
  0
TABLE
  2
BLOCK_RECORD
  5
1
100
AcDbSymbolTable
 70
0
  0
BLOCK_RECORD
  5
291
100
AcDbSymbolTableRecord
100
AcDbBlockTableRecord
  2
*Model_Space
  0
BLOCK_RECORD
  5
292
100
AcDbSymbolTableRecord
100
AcDbBlockTableRecord
  2
*Paper_Space
  0
BLOCK_RECORD
  5
293
100
AcDbSymbolTableRecord
100
AcDbBlockTableRecord
  2
_FILLED
  0
ENDTAB
  0
TABLE
  2
DIMSTYLE
  5
A
100
AcDbSymbolTable
 70
1
100
AcDbDimStyleTable
 71
0
  0
DIMSTYLE
105
294
100
AcDbSymbolTableRecord
100
AcDbDimStyleTableRecord
  2
STANDARD
 70
0
  3

  4

 40
1.0
 41
4.0
 42
1.0
 43
0.38
 44
1.0
 45
0.0
 46
0.0
 47
0.001
 48
0.001
140
3.0
141
0.09
142
0.0
143
25.4
144
1.0
145
0.0
146
1.0
147
0.625
 71
1
 72
0
 73
0
 74
0
 75
0
 76
0
 77
1
 78
8
 79
2
170
0
171
2
172
0
173
0
174
0
175
0
176
0
177
0
178
0
270
2
179
3
271
3
272
3
273
2
274
2
275
0
280
0
281
0
282
0
283
1
284
8
285
0
286
0
287
3
288
0
340
11
278
46
341
293
342
293
343
293
344
293
  0
ENDTAB
  0
ENDSEC
  0
SECTION
  2
BLOCKS
  0
BLOCK
  5
20
100
AcDbEntity
  8
0
100
AcDbBlockBegin
  2
*Model_Space
 70
0
 10
0.0
 20
0.0
 30
0.0
  3
*Model_Space
  1

  0
ENDBLK
  5
21
100
AcDbEntity
  8
0
100
AcDbBlockEnd
  0
BLOCK
  5
1C
100
AcDbEntity
  8
0
100
AcDbBlockBegin
  2
*Paper_Space
 70
0
 10
0.0
 20
0.0
 30
0.0
  3
*Paper_Space
  1

  0
ENDBLK
  5
1D
100
AcDbEntity
  8
0
100
AcDbBlockEnd
  0
BLOCK
  5
295
100
AcDbEntity
  8
0
100
AcDbBlockBegin
  2
_FILLED
 70
64
 10
0.0
 20
0.0
 30
0.0
  3
_FILLED
  1

  0
SOLID
  5
296
100
AcDbEntity
  8
0
  6
BYBLOCK
 62
0
100
AcDbTrace
 10
0.0
 20
0.0
 30
0.0
 11
-1.0
 21
0.1875
 31
0.0
 12
-1.0
 22
-0.1875
 32
0.0
 13
-1.0
 23
-0.1875
 33
0.0
  0
ENDBLK
  5
297
100
AcDbEntity
  8
0
  6
BYBLOCK
 62
0
100
AcDbBlockEnd
  0
ENDSEC
  0
SECTION
  2
ENTITIES
  0
LINE
  5
298
100
AcDbEntity
  8
0
100
AcDbLine
 62
7
  6
CONTINUOUS
 10
0.0
 20
0.0
 30
0.0
 11
0.0
 21
1260.0
 31
0.0
  0
LINE
  5
299
100
AcDbEntity
  8
0
100
AcDbLine
 62
7
  6
CONTINUOUS
 10
0.0
 20
0.0
 30
0.0
 11
1782.0
 21
0.0
 31
0.0
  0
LINE
  5
29A
100
AcDbEntity
  8
0
100
AcDbLine
 62
7
  6
CONTINUOUS
 10
0.0
 20
1260.0
 30
0.0
 11
1782.0
 21
1260.0
 31
0.0
  0
LINE
  5
29B
100
AcDbEntity
  8
0
100
AcDbLine
 62
7
  6
CONTINUOUS
 10
1782.0
 20
0.0
 30
0.0
 11
1782.0
 21
1260.0
 31
0.0
  0
LINE
  5
29C
100
AcDbEntity
  8
0
100
AcDbLine
 62
7
  6
CONTINUOUS
 10
91.0163776133
 20
83.7380419069
 30
0.0
 11
90.6644278683
 21
85.1961678881
 31
0.0
  0
LINE
  5
29D
100
AcDbEntity
  8
0
100
AcDbLine
 62
7
  6
CONTINUOUS
 10
153.2305328927
 20
76.7078020708
 30
0.0
 11
150.778962078
 21
83.7380419069
 31
0.0
  0
LINE
  5
29E
100
AcDbEntity
  8
0
100
AcDbLine
 62
7
  6
CONTINUOUS
 10
160.6644278683
 20
876.0370738319
 30
0.0
 11
160.6644278683
 21
877.2370738319
 31
0.0
  0
LINE
  5
29F
100
AcDbEntity
  8
0
100
AcDbLine
 62
7
  6
CONTINUOUS
 10
169.1644278683
 20
877.2370738319
 30
0.0
 11
169.1644278683
 21
896.0370738319
 31
0.0
  0
LINE
  5
2A0
100
AcDbEntity
  8
0
100
AcDbLine
 62
7
  6
CONTINUOUS
 10
170.3144278683
 20
876.0370738319
 30
0.0
 11
170.3144278683
 21
875.761916008
 31
0.0
  0
LINE
  5
2A1
100
AcDbEntity
  8
0
100
AcDbLine
 62
7
  6
CONTINUOUS
 10
171.5644278683
 20
896.0370738319
 30
0.0
 11
171.5644278683
 21
897.2370738319
 31
0.0
  0
LINE
  5
2A2
100
AcDbEntity
  8
0
100
AcDbLine
 62
7
  6
CONTINUOUS
 10
173.1644278683
 20
897.2370738319
 30
0.0
 11
173.1644278683
 21
900.2370738319
 31
0.0
  0
LINE
  5
2A3
100
AcDbEntity
  8
0
100
AcDbLine
 62
7
  6
CONTINUOUS
 10
185.6644278683
 20
99.4370738319
 30
0.0
 11
185.6644278683
 21
101.4370738319
 31
0.0
  0
LINE
  5
2A4
100
AcDbEntity
  8
0
100
AcDbLine
 62
7
  6
CONTINUOUS
 10
187.4144278683
 20
862.5370738319
 30
0.0
 11
187.4144278683
 21
870.1623368716
 31
0.0
  0
LINE
  5
2A5
100
AcDbEntity
  8
0
100
AcDbLine
 62
7
  6
CONTINUOUS
 10
187.6644278683
 20
101.4370738319
 30
0.0
 11
187.6644278683
 21
129.4370738319
 31
0.0
  0
LINE
  5
2A6
100
AcDbEntity
  8
0
100
AcDbLine
 62
6
  6
CONTINUOUS
 10
189.2144278683
 20
129.4370738319
 30
0.0
 11
189.2144278683
 21
160.6370738319
 31
0.0
  0
LINE
  5
2A7
100
AcDbEntity
  8
0
100
AcDbLine
 62
9
  6
CONTINUOUS
 10
190.6644278683
 20
900.2370738319
 30
0.0
 11
190.6644278683
 21
876.0370738319
 31
0.0
  0
LINE
  5
2A8
100
AcDbEntity
  8
0
100
AcDbLine
 62
6
  6
CONTINUOUS
 10
192.1144278683
 20
129.4370738319
 30
0.0
 11
192.1144278683
 21
160.6370738319
 31
0.0
  0
LINE
  5
2A9
100
AcDbEntity
  8
0
100
AcDbLine
 62
7
  6
CONTINUOUS
 10
193.6644278683
 20
101.4370738319
 30
0.0
 11
193.6644278683
 21
129.4370738319
 31
0.0
  0
LINE
  5
2AA
100
AcDbEntity
  8
0
100
AcDbLine
 62
7
  6
CONTINUOUS
 10
193.9144278683
 20
862.5370738319
 30
0.0
 11
193.9144278683
 21
870.1623368716
 31
0.0
  0
LINE
  5
2AB
100
AcDbEntity
  8
0
100
AcDbLine
 62
7
  6
CONTINUOUS
 10
195.6644278683
 20
99.4370738319
 30
0.0
 11
195.6644278683
 21
101.4370738319
 31
0.0
  0
LINE
  5
2AC
100
AcDbEntity
  8
0
100
AcDbLine
 62
9
  6
CONTINUOUS
 10
210.6644278683
 20
897.2370738319
 30
0.0
 11
210.6644278683
 21
900.2370738319
 31
0.0
  0
LINE
  5
2AD
100
AcDbEntity
  8
0
100
AcDbLine
 62
7
  6
CONTINUOUS
 10
211.0144278683
 20
876.0370738319
 30
0.0
 11
211.0144278683
 21
875.761916008
 31
0.0
  0
LINE
  5
2AE
100
AcDbEntity
  8
0
100
AcDbLine
 62
7
  6
CONTINUOUS
 10
211.1644278683
 20
900.2370738319
 30
0.0
 11
211.1644278683
 21
896.5370738319
 31
0.0
  0
LINE
  5
2AF
100
AcDbEntity
  8
0
100
AcDbLine
 62
7
  6
CONTINUOUS
 10
221.1644278683
 20
894.8370738319
 30
0.0
 11
221.1644278683
 21
897.2370738319
 31
0.0
  0
LINE
  5
2B0
100
AcDbEntity
  8
0
100
AcDbLine
 62
7
  6
CONTINUOUS
 10
194.2741045952
 20
870.6422424655
 30
0.0
 11
210.7986218321
 21
875.4739726517
 31
0.0
  0
LINE
  5
2B1
100
AcDbEntity
  8
0
100
AcDbLine
 62
7
  6
CONTINUOUS
 10
232.5644278683
 20
883.9370738319
 30
0.0
 11
232.5644278683
 21
881.7370738319
 31
0.0
  0
LINE
  5
2B2
100
AcDbEntity
  8
0
100
AcDbLine
 62
7
  6
CONTINUOUS
 10
235.7644278683
 20
881.7370738319
 30
0.0
 11
235.7644278683
 21
883.9370738319
 31
0.0
  0
LINE
  5
2B3
100
AcDbEntity
  8
0
100
AcDbLine
 62
9
  6
CONTINUOUS
 10
246.1644278683
 20
897.2370738319
 30
0.0
 11
246.1644278683
 21
900.2370738319
 31
0.0
  0
LINE
  5
2B4
100
AcDbEntity
  8
0
100
AcDbLine
 62
7
  6
CONTINUOUS
 10
251.1644278683
 20
899.7370738319
 30
0.0
 11
251.1644278683
 21
897.2370738319
 31
0.0
  0
LINE
  5
2B5
100
AcDbEntity
  8
0
100
AcDbLine
 62
7
  6
CONTINUOUS
 10
1249.3174601797
 20
99.3533257943
 30
0.0
 11
1190.6644278683
 21
85.1961678881
 31
0.0
  0
LINE
  5
2B6
100
AcDbEntity
  8
0
100
AcDbLine
 62
7
  6
CONTINUOUS
 10
232.0113955569
 20
99.3533257943
 30
0.0
 11
290.6644278683
 21
85.1961678881
 31
0.0
  0
LINE
  5
2B7
100
AcDbEntity
  8
0
100
AcDbLine
 62
7
  6
CONTINUOUS
 10
744.2741045952
 20
870.6422424655
 30
0.0
 11
760.7986218321
 21
875.4739726517
 31
0.0
  0
LINE
  5
2B8
100
AcDbEntity
  8
0
100
AcDbLine
 62
7
  6
CONTINUOUS
 10
699.3174601797
 20
99.3533257943
 30
0.0
 11
640.6644278683
 21
85.1961678881
 31
0.0
  0
LINE
  5
2B9
100
AcDbEntity
  8
0
100
AcDbLine
 62
7
  6
CONTINUOUS
 10
154.1747680897
 20
76.0370738319
 30
0.0
 11
227.1540876469
 21
76.0370738319
 31
0.0
  0
LINE
  5
2BA
100
AcDbEntity
  8
0
100
AcDbLine
 62
7
  6
CONTINUOUS
 10
704.1747680897
 20
76.0370738319
 30
0.0
 11
777.1540876469
 21
76.0370738319
 31
0.0
  0
LINE
  5
2BB
100
AcDbEntity
  8
0
100
AcDbLine
 62
7
  6
CONTINUOUS
 10
1254.1747680897
 20
76.0370738319
 30
0.0
 11
1327.1540876469
 21
76.0370738319
 31
0.0
  0
LINE
  5
2BC
100
AcDbEntity
  8
0
100
AcDbLine
 62
9
  6
CONTINUOUS
 10
153.2305328927
 20
76.7078020708
 30
0.0
 11
228.0983228439
 21
76.7078020708
 31
0.0
  0
LINE
  5
2BD
100
AcDbEntity
  8
0
100
AcDbLine
 62
9
  6
CONTINUOUS
 10
703.2305328927
 20
76.7078020708
 30
0.0
 11
778.0983228439
 21
76.7078020708
 31
0.0
  0
LINE
  5
2BE
100
AcDbEntity
  8
0
100
AcDbLine
 62
9
  6
CONTINUOUS
 10
1253.2305328927
 20
76.7078020708
 30
0.0
 11
1328.0983228439
 21
76.7078020708
 31
0.0
  0
LINE
  5
2BF
100
AcDbEntity
  8
0
100
AcDbLine
 62
7
  6
CONTINUOUS
 10
91.0163776133
 20
83.7380419069
 30
0.0
 11
290.3124781234
 21
83.7380419069
 31
0.0
  0
LINE
  5
2C0
100
AcDbEntity
  8
0
100
AcDbLine
 62
7
  6
CONTINUOUS
 10
641.0163776133
 20
83.7380419069
 30
0.0
 11
840.3124781234
 21
83.7380419069
 31
0.0
  0
LINE
  5
2C1
100
AcDbEntity
  8
0
100
AcDbLine
 62
7
  6
CONTINUOUS
 10
1191.0163776133
 20
83.7380419069
 30
0.0
 11
1390.3124781234
 21
83.7380419069
 31
0.0
  0
LINE
  5
2C2
100
AcDbEntity
  8
0
100
AcDbLine
 62
7
  6
CONTINUOUS
 10
90.6644278683
 20
85.1961678881
 30
0.0
 11
290.6644278683
 21
85.1961678881
 31
0.0
  0
LINE
  5
2C3
100
AcDbEntity
  8
0
100
AcDbLine
 62
7
  6
CONTINUOUS
 10
640.6644278683
 20
85.1961678881
 30
0.0
 11
840.6644278683
 21
85.1961678881
 31
0.0
  0
LINE
  5
2C4
100
AcDbEntity
  8
0
100
AcDbLine
 62
7
  6
CONTINUOUS
 10
1190.6644278683
 20
85.1961678881
 30
0.0
 11
1390.6644278683
 21
85.1961678881
 31
0.0
  0
LINE
  5
2C5
100
AcDbEntity
  8
0
100
AcDbLine
 62
9
  6
CONTINUOUS
 10
1332.0113955569
 20
99.3533257943
 30
0.0
 11
1249.3174601797
 21
99.3533257943
 31
0.0
  0
LINE
  5
2C6
100
AcDbEntity
  8
0
100
AcDbLine
 62
9
  6
CONTINUOUS
 10
782.0113955569
 20
99.3533257943
 30
0.0
 11
699.3174601797
 21
99.3533257943
 31
0.0
  0
LINE
  5
2C7
100
AcDbEntity
  8
0
100
AcDbLine
 62
9
  6
CONTINUOUS
 10
232.0113955569
 20
99.3533257943
 30
0.0
 11
149.3174601797
 21
99.3533257943
 31
0.0
  0
LINE
  5
2C8
100
AcDbEntity
  8
0
100
AcDbLine
 62
7
  6
CONTINUOUS
 10
150.0213596696
 20
99.4370738319
 30
0.0
 11
231.307496067
 21
99.4370738319
 31
0.0
  0
LINE
  5
2C9
100
AcDbEntity
  8
0
100
AcDbLine
 62
7
  6
CONTINUOUS
 10
700.0213596696
 20
99.4370738319
 30
0.0
 11
781.307496067
 21
99.4370738319
 31
0.0
  0
LINE
  5
2CA
100
AcDbEntity
  8
0
100
AcDbLine
 62
7
  6
CONTINUOUS
 10
1250.0213596696
 20
99.4370738319
 30
0.0
 11
1331.307496067
 21
99.4370738319
 31
0.0
  0
LINE
  5
2CB
100
AcDbEntity
  8
0
100
AcDbLine
 62
7
  6
CONTINUOUS
 10
1295.6644278683
 20
101.4370738319
 30
0.0
 11
1285.6645027005
 21
101.4370738319
 31
0.0
  0
LINE
  5
2CC
100
AcDbEntity
  8
0
100
AcDbLine
 62
7
  6
CONTINUOUS
 10
745.6644278683
 20
101.4370738319
 30
0.0
 11
735.6645027005
 21
101.4370738319
 31
0.0
  0
LINE
  5
2CD
100
AcDbEntity
  8
0
100
AcDbLine
 62
7
  6
CONTINUOUS
 10
195.6644278683
 20
101.4370738319
 30
0.0
 11
185.6645027005
 21
101.4370738319
 31
0.0
  0
LINE
  5
2CE
100
AcDbEntity
  8
0
100
AcDbLine
 62
7
  6
CONTINUOUS
 10
782.0113955569
 20
99.3533257943
 30
0.0
 11
840.6644278683
 21
85.1961678881
 31
0.0
  0
LINE
  5
2CF
100
AcDbEntity
  8
0
100
AcDbLine
 62
7
  6
CONTINUOUS
 10
290.3124781234
 20
83.7380419069
 30
0.0
 11
290.6644278683
 21
85.1961678881
 31
0.0
  0
LINE
  5
2D0
100
AcDbEntity
  8
0
100
AcDbLine
 62
7
  6
CONTINUOUS
 10
228.0983228439
 20
76.7078020708
 30
0.0
 11
230.5498936586
 21
83.7380419069
 31
0.0
  0
LINE
  5
2D1
100
AcDbEntity
  8
0
100
AcDbLine
 62
7
  6
CONTINUOUS
 10
1293.6644278683
 20
129.4370738319
 30
0.0
 11
1287.6644278683
 21
129.4370738319
 31
0.0
  0
LINE
  5
2D2
100
AcDbEntity
  8
0
100
AcDbLine
 62
7
  6
CONTINUOUS
 10
743.6644278683
 20
129.4370738319
 30
0.0
 11
737.6644278683
 21
129.4370738319
 31
0.0
  0
LINE
  5
2D3
100
AcDbEntity
  8
0
100
AcDbLine
 62
7
  6
CONTINUOUS
 10
193.6644278683
 20
129.4370738319
 30
0.0
 11
187.6644278683
 21
129.4370738319
 31
0.0
  0
LINE
  5
2D4
100
AcDbEntity
  8
0
100
AcDbLine
 62
7
  6
CONTINUOUS
 10
189.2144278683
 20
160.6370738319
 30
0.0
 11
189.8414774978
 21
160.6370738319
 31
0.0
  0
LINE
  5
2D5
100
AcDbEntity
  8
0
100
AcDbLine
 62
7
  6
CONTINUOUS
 10
739.2144278683
 20
160.6370738319
 30
0.0
 11
739.8414774978
 21
160.6370738319
 31
0.0
  0
LINE
  5
2D6
100
AcDbEntity
  8
0
100
AcDbLine
 62
7
  6
CONTINUOUS
 10
739.842330616
 20
160.6370736863
 30
0.0
 11
742.1144278683
 21
160.6370738319
 31
0.0
  0
LINE
  5
2D7
100
AcDbEntity
  8
0
100
AcDbLine
 62
7
  6
CONTINUOUS
 10
1289.2144278683
 20
160.6370738319
 30
0.0
 11
1289.8414774978
 21
160.6370738319
 31
0.0
  0
LINE
  5
2D8
100
AcDbEntity
  8
0
100
AcDbLine
 62
7
  6
CONTINUOUS
 10
1289.842330616
 20
160.6370736863
 30
0.0
 11
1292.1144278683
 21
160.6370738319
 31
0.0
  0
LINE
  5
2D9
100
AcDbEntity
  8
0
100
AcDbLine
 62
7
  6
CONTINUOUS
 10
189.842330616
 20
160.6370736863
 30
0.0
 11
192.1144278683
 21
160.6370738319
 31
0.0
  0
LINE
  5
2DA
100
AcDbEntity
  8
0
100
AcDbLine
 62
7
  6
CONTINUOUS
 10
1294.2741045952
 20
870.6422424655
 30
0.0
 11
1310.7986218321
 21
875.4739726517
 31
0.0
  0
LINE
  5
2DB
100
AcDbEntity
  8
0
100
AcDbLine
 62
7
  6
CONTINUOUS
 10
149.3174601797
 20
99.3533257943
 30
0.0
 11
90.6644278683
 21
85.1961678881
 31
0.0
  0
LINE
  5
2DC
100
AcDbEntity
  8
0
100
AcDbLine
 62
7
  6
CONTINUOUS
 10
1332.0113955569
 20
99.3533257943
 30
0.0
 11
1390.6644278683
 21
85.1961678881
 31
0.0
  0
LINE
  5
2DD
100
AcDbEntity
  8
0
100
AcDbLine
 62
7
  6
CONTINUOUS
 10
703.2305328927
 20
76.7078020708
 30
0.0
 11
700.778962078
 21
83.7380419069
 31
0.0
  0
LINE
  5
2DE
100
AcDbEntity
  8
0
100
AcDbLine
 62
7
  6
CONTINUOUS
 10
641.0163776133
 20
83.7380419069
 30
0.0
 11
640.6644278683
 21
85.1961678881
 31
0.0
  0
LINE
  5
2DF
100
AcDbEntity
  8
0
100
AcDbLine
 62
7
  6
CONTINUOUS
 10
720.3144278683
 20
876.0370738319
 30
0.0
 11
720.3144278683
 21
875.761916008
 31
0.0
  0
LINE
  5
2E0
100
AcDbEntity
  8
0
100
AcDbLine
 62
7
  6
CONTINUOUS
 10
735.6644278683
 20
99.4370738319
 30
0.0
 11
735.6644278683
 21
101.4370738319
 31
0.0
  0
LINE
  5
2E1
100
AcDbEntity
  8
0
100
AcDbLine
 62
7
  6
CONTINUOUS
 10
737.4144278683
 20
862.5370738319
 30
0.0
 11
737.4144278683
 21
870.1623368716
 31
0.0
  0
LINE
  5
2E2
100
AcDbEntity
  8
0
100
AcDbLine
 62
7
  6
CONTINUOUS
 10
737.6644278683
 20
101.4370738319
 30
0.0
 11
737.6644278683
 21
129.4370738319
 31
0.0
  0
LINE
  5
2E3
100
AcDbEntity
  8
0
100
AcDbLine
 62
7
  6
CONTINUOUS
 10
739.0644278683
 20
883.9370738319
 30
0.0
 11
739.0644278683
 21
881.7370738319
 31
0.0
  0
LINE
  5
2E4
100
AcDbEntity
  8
0
100
AcDbLine
 62
6
  6
CONTINUOUS
 10
739.2144278683
 20
129.4370738319
 30
0.0
 11
739.2144278683
 21
160.6370738319
 31
0.0
  0
LINE
  5
2E5
100
AcDbEntity
  8
0
100
AcDbLine
 62
6
  6
CONTINUOUS
 10
742.1144278683
 20
129.4370738319
 30
0.0
 11
742.1144278683
 21
160.6370738319
 31
0.0
  0
LINE
  5
2E6
100
AcDbEntity
  8
0
100
AcDbLine
 62
7
  6
CONTINUOUS
 10
742.2644278683
 20
881.7370738319
 30
0.0
 11
742.2644278683
 21
883.9370738319
 31
0.0
  0
LINE
  5
2E7
100
AcDbEntity
  8
0
100
AcDbLine
 62
7
  6
CONTINUOUS
 10
743.6644278683
 20
101.4370738319
 30
0.0
 11
743.6644278683
 21
129.4370738319
 31
0.0
  0
LINE
  5
2E8
100
AcDbEntity
  8
0
100
AcDbLine
 62
7
  6
CONTINUOUS
 10
743.9144278683
 20
862.5370738319
 30
0.0
 11
743.9144278683
 21
870.1623368716
 31
0.0
  0
LINE
  5
2E9
100
AcDbEntity
  8
0
100
AcDbLine
 62
7
  6
CONTINUOUS
 10
745.6644278683
 20
99.4370738319
 30
0.0
 11
745.6644278683
 21
101.4370738319
 31
0.0
  0
LINE
  5
2EA
100
AcDbEntity
  8
0
100
AcDbLine
 62
7
  6
CONTINUOUS
 10
761.0144278683
 20
876.0370738319
 30
0.0
 11
761.0144278683
 21
875.761916008
 31
0.0
  0
LINE
  5
2EB
100
AcDbEntity
  8
0
100
AcDbLine
 62
7
  6
CONTINUOUS
 10
840.3124781234
 20
83.7380419069
 30
0.0
 11
840.6644278683
 21
85.1961678881
 31
0.0
  0
LINE
  5
2EC
100
AcDbEntity
  8
0
100
AcDbLine
 62
7
  6
CONTINUOUS
 10
778.0983228439
 20
76.7078020708
 30
0.0
 11
780.5498936586
 21
83.7380419069
 31
0.0
  0
LINE
  5
2ED
100
AcDbEntity
  8
0
100
AcDbLine
 62
7
  6
CONTINUOUS
 10
187.0547511414
 20
870.6422424655
 30
0.0
 11
170.5302339045
 21
875.4739726517
 31
0.0
  0
LINE
  5
2EE
100
AcDbEntity
  8
0
100
AcDbLine
 62
7
  6
CONTINUOUS
 10
1253.2305328927
 20
76.7078020708
 30
0.0
 11
1250.778962078
 21
83.7380419069
 31
0.0
  0
LINE
  5
2EF
100
AcDbEntity
  8
0
100
AcDbLine
 62
7
  6
CONTINUOUS
 10
1191.0163776133
 20
83.7380419069
 30
0.0
 11
1190.6644278683
 21
85.1961678881
 31
0.0
  0
LINE
  5
2F0
100
AcDbEntity
  8
0
100
AcDbLine
 62
7
  6
CONTINUOUS
 10
187.4144278683
 20
862.5370738319
 30
0.0
 11
193.9144278683
 21
862.5370738319
 31
0.0
  0
LINE
  5
2F1
100
AcDbEntity
  8
0
100
AcDbLine
 62
7
  6
CONTINUOUS
 10
737.4144278683
 20
862.5370738319
 30
0.0
 11
743.9144278683
 21
862.5370738319
 31
0.0
  0
LINE
  5
2F2
100
AcDbEntity
  8
0
100
AcDbLine
 62
7
  6
CONTINUOUS
 10
1287.4144278683
 20
862.5370738319
 30
0.0
 11
1293.9144278683
 21
862.5370738319
 31
0.0
  0
LINE
  5
2F3
100
AcDbEntity
  8
0
100
AcDbLine
 62
9
  6
CONTINUOUS
 10
187.4144278683
 20
870.1623368716
 30
0.0
 11
193.9144278683
 21
870.1623368716
 31
0.0
  0
LINE
  5
2F4
100
AcDbEntity
  8
0
100
AcDbLine
 62
9
  6
CONTINUOUS
 10
737.4144278683
 20
870.1623368716
 30
0.0
 11
743.9144278683
 21
870.1623368716
 31
0.0
  0
LINE
  5
2F5
100
AcDbEntity
  8
0
100
AcDbLine
 62
9
  6
CONTINUOUS
 10
1287.4144278683
 20
870.1623368716
 30
0.0
 11
1293.9144278683
 21
870.1623368716
 31
0.0
  0
LINE
  5
2F6
100
AcDbEntity
  8
0
100
AcDbLine
 62
9
  6
CONTINUOUS
 10
187.0547511414
 20
870.6422424655
 30
0.0
 11
194.2741045952
 21
870.6422424655
 31
0.0
  0
LINE
  5
2F7
100
AcDbEntity
  8
0
100
AcDbLine
 62
9
  6
CONTINUOUS
 10
737.0547511414
 20
870.6422424655
 30
0.0
 11
744.2741045952
 21
870.6422424655
 31
0.0
  0
LINE
  5
2F8
100
AcDbEntity
  8
0
100
AcDbLine
 62
9
  6
CONTINUOUS
 10
1287.0547511414
 20
870.6422424655
 30
0.0
 11
1294.2741045952
 21
870.6422424655
 31
0.0
  0
LINE
  5
2F9
100
AcDbEntity
  8
0
100
AcDbLine
 62
9
  6
CONTINUOUS
 10
1310.7986218321
 20
875.4739726517
 30
0.0
 11
1270.5302339045
 21
875.4739726517
 31
0.0
  0
LINE
  5
2FA
100
AcDbEntity
  8
0
100
AcDbLine
 62
9
  6
CONTINUOUS
 10
760.7986218321
 20
875.4739726517
 30
0.0
 11
720.5302339045
 21
875.4739726517
 31
0.0
  0
LINE
  5
2FB
100
AcDbEntity
  8
0
100
AcDbLine
 62
9
  6
CONTINUOUS
 10
210.7986218321
 20
875.4739726517
 30
0.0
 11
170.5302339045
 21
875.4739726517
 31
0.0
  0
LINE
  5
2FC
100
AcDbEntity
  8
0
100
AcDbLine
 62
9
  6
CONTINUOUS
 10
1311.0144278683
 20
875.761916008
 30
0.0
 11
1270.3144278683
 21
875.761916008
 31
0.0
  0
LINE
  5
2FD
100
AcDbEntity
  8
0
100
AcDbLine
 62
9
  6
CONTINUOUS
 10
761.0144278683
 20
875.761916008
 30
0.0
 11
720.3144278683
 21
875.761916008
 31
0.0
  0
LINE
  5
2FE
100
AcDbEntity
  8
0
100
AcDbLine
 62
9
  6
CONTINUOUS
 10
211.0144278683
 20
875.761916008
 30
0.0
 11
170.3144278683
 21
875.761916008
 31
0.0
  0
LINE
  5
2FF
100
AcDbEntity
  8
0
100
AcDbLine
 62
7
  6
CONTINUOUS
 10
160.6644278683
 20
876.0370738319
 30
0.0
 11
1320.6644278683
 21
876.0370738319
 31
0.0
  0
LINE
  5
300
100
AcDbEntity
  8
0
100
AcDbLine
 62
7
  6
CONTINUOUS
 10
1320.6644278683
 20
877.2370738319
 30
0.0
 11
160.6644278683
 21
877.2370738319
 31
0.0
  0
LINE
  5
301
100
AcDbEntity
  8
0
100
AcDbLine
 62
7
  6
CONTINUOUS
 10
739.5101313557
 20
881.0370738319
 30
0.0
 11
741.8187246394
 21
881.0370738319
 31
0.0
  0
LINE
  5
302
100
AcDbEntity
  8
0
100
AcDbLine
 62
9
  6
CONTINUOUS
 10
1260.1644278683
 20
894.8370738319
 30
0.0
 11
221.1644278683
 21
894.8370738319
 31
0.0
  0
LINE
  5
303
100
AcDbEntity
  8
0
100
AcDbLine
 62
7
  6
CONTINUOUS
 10
1312.1644278683
 20
896.0370738319
 30
0.0
 11
1270.6644278683
 21
896.0370738319
 31
0.0
  0
LINE
  5
304
100
AcDbEntity
  8
0
100
AcDbLine
 62
7
  6
CONTINUOUS
 10
210.6644278683
 20
896.0370738319
 30
0.0
 11
169.1644278683
 21
896.0370738319
 31
0.0
  0
LINE
  5
305
100
AcDbEntity
  8
0
100
AcDbLine
 62
7
  6
CONTINUOUS
 10
1295.0644278683
 20
896.2370738319
 30
0.0
 11
1286.2644278683
 21
896.2370738319
 31
0.0
  0
LINE
  5
306
100
AcDbEntity
  8
0
100
AcDbLine
 62
9
  6
CONTINUOUS
 10
1285.7644278683
 20
896.7370738319
 30
0.0
 11
1295.5644278683
 21
896.7370738319
 31
0.0
  0
LINE
  5
307
100
AcDbEntity
  8
0
100
AcDbLine
 62
7
  6
CONTINUOUS
 10
211.1644278683
 20
897.2370738319
 30
0.0
 11
171.5644278683
 21
897.2370738319
 31
0.0
  0
LINE
  5
308
100
AcDbEntity
  8
0
100
AcDbLine
 62
7
  6
CONTINUOUS
 10
221.1644278683
 20
897.2370738319
 30
0.0
 11
1260.1644278683
 21
897.2370738319
 31
0.0
  0
LINE
  5
309
100
AcDbEntity
  8
0
100
AcDbLine
 62
7
  6
CONTINUOUS
 10
1270.1644278683
 20
897.2370738319
 30
0.0
 11
1308.1644278683
 21
897.2370738319
 31
0.0
  0
LINE
  5
30A
100
AcDbEntity
  8
0
100
AcDbLine
 62
9
  6
CONTINUOUS
 10
1270.1644278683
 20
899.7370738319
 30
0.0
 11
1230.1644278683
 21
899.7370738319
 31
0.0
  0
LINE
  5
30B
100
AcDbEntity
  8
0
100
AcDbLine
 62
9
  6
CONTINUOUS
 10
251.1644278683
 20
899.7370738319
 30
0.0
 11
211.1644278683
 21
899.7370738319
 31
0.0
  0
LINE
  5
30C
100
AcDbEntity
  8
0
100
AcDbLine
 62
7
  6
CONTINUOUS
 10
173.1644278683
 20
900.2370738319
 30
0.0
 11
250.6644278683
 21
900.2370738319
 31
0.0
  0
LINE
  5
30D
100
AcDbEntity
  8
0
100
AcDbLine
 62
7
  6
CONTINUOUS
 10
1230.6644278683
 20
900.2370738319
 30
0.0
 11
1308.1644278683
 21
900.2370738319
 31
0.0
  0
LINE
  5
30E
100
AcDbEntity
  8
0
100
AcDbLine
 62
7
  6
CONTINUOUS
 10
737.0547511414
 20
870.6422424655
 30
0.0
 11
720.5302339045
 21
875.4739726517
 31
0.0
  0
LINE
  5
30F
100
AcDbEntity
  8
0
100
AcDbLine
 62
7
  6
CONTINUOUS
 10
1230.1644278683
 20
897.2370738319
 30
0.0
 11
1230.1644278683
 21
899.7370738319
 31
0.0
  0
LINE
  5
310
100
AcDbEntity
  8
0
100
AcDbLine
 62
9
  6
CONTINUOUS
 10
1235.1644278683
 20
900.2370738319
 30
0.0
 11
1235.1644278683
 21
897.2370738319
 31
0.0
  0
LINE
  5
311
100
AcDbEntity
  8
0
100
AcDbLine
 62
7
  6
CONTINUOUS
 10
1245.5644278683
 20
883.9370738319
 30
0.0
 11
1245.5644278683
 21
881.7370738319
 31
0.0
  0
LINE
  5
312
100
AcDbEntity
  8
0
100
AcDbLine
 62
7
  6
CONTINUOUS
 10
1248.7644278683
 20
881.7370738319
 30
0.0
 11
1248.7644278683
 21
883.9370738319
 31
0.0
  0
LINE
  5
313
100
AcDbEntity
  8
0
100
AcDbLine
 62
7
  6
CONTINUOUS
 10
1260.1644278683
 20
897.2370738319
 30
0.0
 11
1260.1644278683
 21
894.8370738319
 31
0.0
  0
LINE
  5
314
100
AcDbEntity
  8
0
100
AcDbLine
 62
7
  6
CONTINUOUS
 10
1270.1644278683
 20
896.5370738319
 30
0.0
 11
1270.1644278683
 21
900.2370738319
 31
0.0
  0
LINE
  5
315
100
AcDbEntity
  8
0
100
AcDbLine
 62
7
  6
CONTINUOUS
 10
1270.3144278683
 20
876.0370738319
 30
0.0
 11
1270.3144278683
 21
875.761916008
 31
0.0
  0
LINE
  5
316
100
AcDbEntity
  8
0
100
AcDbLine
 62
9
  6
CONTINUOUS
 10
1270.6644278683
 20
900.2370738319
 30
0.0
 11
1270.6644278683
 21
897.2370738319
 31
0.0
  0
LINE
  5
317
100
AcDbEntity
  8
0
100
AcDbLine
 62
7
  6
CONTINUOUS
 10
1285.6644278683
 20
99.4370738319
 30
0.0
 11
1285.6644278683
 21
101.4370738319
 31
0.0
  0
LINE
  5
318
100
AcDbEntity
  8
0
100
AcDbLine
 62
7
  6
CONTINUOUS
 10
1285.7644278683
 20
896.7370738319
 30
0.0
 11
1285.7644278683
 21
897.2370738319
 31
0.0
  0
LINE
  5
319
100
AcDbEntity
  8
0
100
AcDbLine
 62
7
  6
CONTINUOUS
 10
1287.4144278683
 20
862.5370738319
 30
0.0
 11
1287.4144278683
 21
870.1623368716
 31
0.0
  0
LINE
  5
31A
100
AcDbEntity
  8
0
100
AcDbLine
 62
7
  6
CONTINUOUS
 10
1287.6644278683
 20
101.4370738319
 30
0.0
 11
1287.6644278683
 21
129.4370738319
 31
0.0
  0
LINE
  5
31B
100
AcDbEntity
  8
0
100
AcDbLine
 62
6
  6
CONTINUOUS
 10
1289.2144278683
 20
129.4370738319
 30
0.0
 11
1289.2144278683
 21
160.6370738319
 31
0.0
  0
LINE
  5
31C
100
AcDbEntity
  8
0
100
AcDbLine
 62
9
  6
CONTINUOUS
 10
1290.6644278683
 20
876.0370738319
 30
0.0
 11
1290.6644278683
 21
896.0370738319
 31
0.0
  0
LINE
  5
31D
100
AcDbEntity
  8
0
100
AcDbLine
 62
9
  6
CONTINUOUS
 10
1290.6644278683
 20
897.2370738319
 30
0.0
 11
1290.6644278683
 21
900.2370738319
 31
0.0
  0
LINE
  5
31E
100
AcDbEntity
  8
0
100
AcDbLine
 62
6
  6
CONTINUOUS
 10
1292.1144278683
 20
129.4370738319
 30
0.0
 11
1292.1144278683
 21
160.6370738319
 31
0.0
  0
LINE
  5
31F
100
AcDbEntity
  8
0
100
AcDbLine
 62
7
  6
CONTINUOUS
 10
1293.6644278683
 20
101.4370738319
 30
0.0
 11
1293.6644278683
 21
129.4370738319
 31
0.0
  0
LINE
  5
320
100
AcDbEntity
  8
0
100
AcDbLine
 62
7
  6
CONTINUOUS
 10
1293.9144278683
 20
862.5370738319
 30
0.0
 11
1293.9144278683
 21
870.1623368716
 31
0.0
  0
LINE
  5
321
100
AcDbEntity
  8
0
100
AcDbLine
 62
7
  6
CONTINUOUS
 10
1295.5644278683
 20
896.7370738319
 30
0.0
 11
1295.5644278683
 21
897.2370738319
 31
0.0
  0
LINE
  5
322
100
AcDbEntity
  8
0
100
AcDbLine
 62
7
  6
CONTINUOUS
 10
1295.6644278683
 20
99.4370738319
 30
0.0
 11
1295.6644278683
 21
101.4370738319
 31
0.0
  0
LINE
  5
323
100
AcDbEntity
  8
0
100
AcDbLine
 62
7
  6
CONTINUOUS
 10
1308.1644278683
 20
897.2370738319
 30
0.0
 11
1308.1644278683
 21
900.2370738319
 31
0.0
  0
LINE
  5
324
100
AcDbEntity
  8
0
100
AcDbLine
 62
7
  6
CONTINUOUS
 10
1311.0144278683
 20
876.0370738319
 30
0.0
 11
1311.0144278683
 21
875.761916008
 31
0.0
  0
LINE
  5
325
100
AcDbEntity
  8
0
100
AcDbLine
 62
7
  6
CONTINUOUS
 10
1312.1644278683
 20
877.2370738319
 30
0.0
 11
1312.1644278683
 21
896.0370738319
 31
0.0
  0
LINE
  5
326
100
AcDbEntity
  8
0
100
AcDbLine
 62
7
  6
CONTINUOUS
 10
1287.0547511414
 20
870.6422424655
 30
0.0
 11
1270.5302339045
 21
875.4739726517
 31
0.0
  0
LINE
  5
327
100
AcDbEntity
  8
0
100
AcDbLine
 62
7
  6
CONTINUOUS
 10
1320.6644278683
 20
876.0370738319
 30
0.0
 11
1320.6644278683
 21
877.2370738319
 31
0.0
  0
LINE
  5
328
100
AcDbEntity
  8
0
100
AcDbLine
 62
7
  6
CONTINUOUS
 10
1390.3124781234
 20
83.7380419069
 30
0.0
 11
1390.6644278683
 21
85.1961678881
 31
0.0
  0
LINE
  5
329
100
AcDbEntity
  8
0
100
AcDbLine
 62
7
  6
CONTINUOUS
 10
1328.0983228439
 20
76.7078020708
 30
0.0
 11
1330.5498936586
 21
83.7380419069
 31
0.0
  0
LINE
  5
32A
100
AcDbEntity
  8
0
100
AcDbLine
 62
7
  6
CONTINUOUS
 10
286.0579634031
 20
1056.153722331
 30
0.0
 11
645.2709799582
 21
1056.153722331
 31
0.0
  0
LINE
  5
32B
100
AcDbEntity
  8
0
100
AcDbLine
 62
7
  6
CONTINUOUS
 10
836.0579634031
 20
1056.153722331
 30
0.0
 11
1195.2709799582
 21
1056.153722331
 31
0.0
  0
LINE
  5
32C
100
AcDbEntity
  8
0
100
AcDbLine
 62
7
  6
CONTINUOUS
 10
1195.2708916596
 20
1116.153722331
 30
0.0
 11
836.0578759016
 21
1116.153722331
 31
0.0
  0
LINE
  5
32D
100
AcDbEntity
  8
0
100
AcDbLine
 62
7
  6
CONTINUOUS
 10
645.2708916596
 20
1116.153722331
 30
0.0
 11
286.0578759016
 21
1116.153722331
 31
0.0
  0
LINE
  5
32E
100
AcDbEntity
  8
0
100
AcDbLine
 62
7
  6
CONTINUOUS
 10
1562.9163023674
 20
76.0370738319
 30
0.0
 11
1635.8956219246
 21
76.0370738319
 31
0.0
  0
LINE
  5
32F
100
AcDbEntity
  8
0
100
AcDbLine
 62
9
  6
CONTINUOUS
 10
1561.9720671704
 20
76.7078020708
 30
0.0
 11
1636.8398571216
 21
76.7078020708
 31
0.0
  0
LINE
  5
330
100
AcDbEntity
  8
0
100
AcDbLine
 62
7
  6
CONTINUOUS
 10
1603.0156388729
 20
870.6422424655
 30
0.0
 11
1619.5401561098
 21
875.4739726517
 31
0.0
  0
LINE
  5
331
100
AcDbEntity
  8
0
100
AcDbLine
 62
7
  6
CONTINUOUS
 10
1499.757911891
 20
83.7380419069
 30
0.0
 11
1699.054012401
 21
83.7380419069
 31
0.0
  0
LINE
  5
332
100
AcDbEntity
  8
0
100
AcDbLine
 62
7
  6
CONTINUOUS
 10
1499.405962146
 20
85.1961678881
 30
0.0
 11
1699.405962146
 21
85.1961678881
 31
0.0
  0
LINE
  5
333
100
AcDbEntity
  8
0
100
AcDbLine
 62
9
  6
CONTINUOUS
 10
1640.7529298346
 20
99.3533257943
 30
0.0
 11
1558.0589944574
 21
99.3533257943
 31
0.0
  0
LINE
  5
334
100
AcDbEntity
  8
0
100
AcDbLine
 62
7
  6
CONTINUOUS
 10
1558.7628939473
 20
99.4370738319
 30
0.0
 11
1640.0490303447
 21
99.4370738319
 31
0.0
  0
LINE
  5
335
100
AcDbEntity
  8
0
100
AcDbLine
 62
7
  6
CONTINUOUS
 10
1604.405962146
 20
101.4370738319
 30
0.0
 11
1594.405962146
 21
101.4370738319
 31
0.0
  0
LINE
  5
336
100
AcDbEntity
  8
0
100
AcDbLine
 62
9
  6
CONTINUOUS
 10
1597.1589854846
 20
110.4370738319
 30
0.0
 11
1597.1808697844
 21
110.4370738319
 31
0.0
  0
LINE
  5
337
100
AcDbEntity
  8
0
100
AcDbLine
 62
7
  6
CONTINUOUS
 10
1558.0589944574
 20
99.3533257943
 30
0.0
 11
1499.405962146
 21
85.1961678881
 31
0.0
  0
LINE
  5
338
100
AcDbEntity
  8
0
100
AcDbLine
 62
9
  6
CONTINUOUS
 10
1597.1808697844
 20
116.4370738319
 30
0.0
 11
1597.1589854846
 21
116.4370738319
 31
0.0
  0
LINE
  5
339
100
AcDbEntity
  8
0
100
AcDbLine
 62
7
  6
CONTINUOUS
 10
1602.405962146
 20
129.4370738319
 30
0.0
 11
1596.4060070453
 21
129.4370738319
 31
0.0
  0
LINE
  5
33A
100
AcDbEntity
  8
0
100
AcDbLine
 62
7
  6
CONTINUOUS
 10
1640.7529298346
 20
99.3533257943
 30
0.0
 11
1699.405962146
 21
85.1961678881
 31
0.0
  0
LINE
  5
33B
100
AcDbEntity
  8
0
100
AcDbLine
 62
7
  6
CONTINUOUS
 10
1597.955962146
 20
160.6370738319
 30
0.0
 11
1600.5998016192
 21
160.6370738319
 31
0.0
  0
LINE
  5
33C
100
AcDbEntity
  8
0
100
AcDbLine
 62
7
  6
CONTINUOUS
 10
1600.6003892504
 20
160.6370736863
 30
0.0
 11
1600.855962146
 21
160.6370738319
 31
0.0
  0
LINE
  5
33D
100
AcDbEntity
  8
0
100
AcDbLine
 62
7
  6
CONTINUOUS
 10
1499.757911891
 20
83.7380419069
 30
0.0
 11
1499.405962146
 21
85.1961678881
 31
0.0
  0
LINE
  5
33E
100
AcDbEntity
  8
0
100
AcDbLine
 62
7
  6
CONTINUOUS
 10
1561.9720671704
 20
76.7078020708
 30
0.0
 11
1559.5204963557
 21
83.7380419069
 31
0.0
  0
LINE
  5
33F
100
AcDbEntity
  8
0
100
AcDbLine
 62
7
  6
CONTINUOUS
 10
1569.405962146
 20
876.0370738319
 30
0.0
 11
1569.405962146
 21
877.2370738319
 31
0.0
  0
LINE
  5
340
100
AcDbEntity
  8
0
100
AcDbLine
 62
7
  6
CONTINUOUS
 10
1577.905962146
 20
877.2370738319
 30
0.0
 11
1577.905962146
 21
899.7370738319
 31
0.0
  0
LINE
  5
341
100
AcDbEntity
  8
0
100
AcDbLine
 62
7
  6
CONTINUOUS
 10
1579.055962146
 20
875.761916008
 30
0.0
 11
1579.055962146
 21
876.0370738319
 31
0.0
  0
LINE
  5
342
100
AcDbEntity
  8
0
100
AcDbLine
 62
7
  6
CONTINUOUS
 10
1579.905962146
 20
896.0370738319
 30
0.0
 11
1579.905962146
 21
897.2370738319
 31
0.0
  0
LINE
  5
343
100
AcDbEntity
  8
0
100
AcDbLine
 62
7
  6
CONTINUOUS
 10
1580.305962146
 20
896.0370738319
 30
0.0
 11
1580.305962146
 21
897.2370738319
 31
0.0
  0
LINE
  5
344
100
AcDbEntity
  8
0
100
AcDbLine
 62
9
  6
CONTINUOUS
 10
1581.405962146
 20
897.2370738319
 30
0.0
 11
1581.405962146
 21
900.2370738319
 31
0.0
  0
LINE
  5
345
100
AcDbEntity
  8
0
100
AcDbLine
 62
7
  6
CONTINUOUS
 10
1581.905962146
 20
897.2370738319
 30
0.0
 11
1581.905962146
 21
900.2370738319
 31
0.0
  0
LINE
  5
346
100
AcDbEntity
  8
0
100
AcDbLine
 62
7
  6
CONTINUOUS
 10
1594.405962146
 20
99.4370738319
 30
0.0
 11
1594.405962146
 21
101.4370738319
 31
0.0
  0
LINE
  5
347
100
AcDbEntity
  8
0
100
AcDbLine
 62
7
  6
CONTINUOUS
 10
1596.155962146
 20
870.1623368716
 30
0.0
 11
1596.155962146
 21
862.5370738319
 31
0.0
  0
LINE
  5
348
100
AcDbEntity
  8
0
100
AcDbLine
 62
7
  6
CONTINUOUS
 10
1596.405962146
 20
101.4370738319
 30
0.0
 11
1596.405962146
 21
108.4371411815
 31
0.0
  0
LINE
  5
349
100
AcDbEntity
  8
0
100
AcDbLine
 62
7
  6
CONTINUOUS
 10
1596.405962146
 20
118.4370064823
 30
0.0
 11
1596.405962146
 21
129.4370738319
 31
0.0
  0
LINE
  5
34A
100
AcDbEntity
  8
0
100
AcDbLine
 62
7
  6
CONTINUOUS
 10
1597.1589854846
 20
116.4370738319
 30
0.0
 11
1597.1589854846
 21
110.4370738319
 31
0.0
  0
LINE
  5
34B
100
AcDbEntity
  8
0
100
AcDbLine
 62
7
  6
CONTINUOUS
 10
1597.1808697844
 20
110.4370738319
 30
0.0
 11
1597.1808697844
 21
116.4370738319
 31
0.0
  0
LINE
  5
34C
100
AcDbEntity
  8
0
100
AcDbLine
 62
6
  6
CONTINUOUS
 10
1597.955962146
 20
129.4370738319
 30
0.0
 11
1597.955962146
 21
160.6370738319
 31
0.0
  0
LINE
  5
34D
100
AcDbEntity
  8
0
100
AcDbLine
 62
6
  6
CONTINUOUS
 10
1600.855962146
 20
129.4370738319
 30
0.0
 11
1600.855962146
 21
160.6370738319
 31
0.0
  0
LINE
  5
34E
100
AcDbEntity
  8
0
100
AcDbLine
 62
7
  6
CONTINUOUS
 10
1602.405962146
 20
101.4370738319
 30
0.0
 11
1602.405962146
 21
129.4370738319
 31
0.0
  0
LINE
  5
34F
100
AcDbEntity
  8
0
100
AcDbLine
 62
7
  6
CONTINUOUS
 10
1602.655962146
 20
870.1623368716
 30
0.0
 11
1602.655962146
 21
862.5370738319
 31
0.0
  0
LINE
  5
350
100
AcDbEntity
  8
0
100
AcDbLine
 62
7
  6
CONTINUOUS
 10
1604.405962146
 20
99.4370738319
 30
0.0
 11
1604.405962146
 21
101.4370738319
 31
0.0
  0
LINE
  5
351
100
AcDbEntity
  8
0
100
AcDbLine
 62
7
  6
CONTINUOUS
 10
1616.905962146
 20
900.2370738319
 30
0.0
 11
1616.905962146
 21
897.2370738319
 31
0.0
  0
LINE
  5
352
100
AcDbEntity
  8
0
100
AcDbLine
 62
9
  6
CONTINUOUS
 10
1617.405962146
 20
900.2370738319
 30
0.0
 11
1617.405962146
 21
897.2370738319
 31
0.0
  0
LINE
  5
353
100
AcDbEntity
  8
0
100
AcDbLine
 62
7
  6
CONTINUOUS
 10
1618.505962146
 20
897.2370738319
 30
0.0
 11
1618.505962146
 21
896.0370738319
 31
0.0
  0
LINE
  5
354
100
AcDbEntity
  8
0
100
AcDbLine
 62
7
  6
CONTINUOUS
 10
1618.905962146
 20
897.2370738319
 30
0.0
 11
1618.905962146
 21
896.0370738319
 31
0.0
  0
LINE
  5
355
100
AcDbEntity
  8
0
100
AcDbLine
 62
7
  6
CONTINUOUS
 10
1619.755962146
 20
875.761916008
 30
0.0
 11
1619.755962146
 21
876.0370738319
 31
0.0
  0
LINE
  5
356
100
AcDbEntity
  8
0
100
AcDbLine
 62
7
  6
CONTINUOUS
 10
1620.905962146
 20
877.2370738319
 30
0.0
 11
1620.905962146
 21
899.7370738319
 31
0.0
  0
LINE
  5
357
100
AcDbEntity
  8
0
100
AcDbLine
 62
7
  6
CONTINUOUS
 10
1629.405962146
 20
877.2370738319
 30
0.0
 11
1629.405962146
 21
876.0370738319
 31
0.0
  0
LINE
  5
358
100
AcDbEntity
  8
0
100
AcDbLine
 62
7
  6
CONTINUOUS
 10
1636.8398571216
 20
76.7078020708
 30
0.0
 11
1639.2914279363
 21
83.7380419069
 31
0.0
  0
LINE
  5
359
100
AcDbEntity
  8
0
100
AcDbLine
 62
7
  6
CONTINUOUS
 10
1699.054012401
 20
83.7380419069
 30
0.0
 11
1699.405962146
 21
85.1961678881
 31
0.0
  0
LINE
  5
35A
100
AcDbEntity
  8
0
100
AcDbLine
 62
7
  6
CONTINUOUS
 10
1595.7962854191
 20
870.6422424655
 30
0.0
 11
1579.2717681822
 21
875.4739726517
 31
0.0
  0
LINE
  5
35B
100
AcDbEntity
  8
0
100
AcDbLine
 62
7
  6
CONTINUOUS
 10
1596.155962146
 20
862.5370738319
 30
0.0
 11
1602.655962146
 21
862.5370738319
 31
0.0
  0
LINE
  5
35C
100
AcDbEntity
  8
0
100
AcDbLine
 62
9
  6
CONTINUOUS
 10
1596.155962146
 20
870.1623368716
 30
0.0
 11
1602.655962146
 21
870.1623368716
 31
0.0
  0
LINE
  5
35D
100
AcDbEntity
  8
0
100
AcDbLine
 62
9
  6
CONTINUOUS
 10
1603.0156388729
 20
870.6422424655
 30
0.0
 11
1595.7962854191
 21
870.6422424655
 31
0.0
  0
LINE
  5
35E
100
AcDbEntity
  8
0
100
AcDbLine
 62
9
  6
CONTINUOUS
 10
1619.5401561098
 20
875.4739726517
 30
0.0
 11
1579.2717681822
 21
875.4739726517
 31
0.0
  0
LINE
  5
35F
100
AcDbEntity
  8
0
100
AcDbLine
 62
9
  6
CONTINUOUS
 10
1619.755962146
 20
875.761916008
 30
0.0
 11
1579.055962146
 21
875.761916008
 31
0.0
  0
LINE
  5
360
100
AcDbEntity
  8
0
100
AcDbLine
 62
7
  6
CONTINUOUS
 10
1569.405962146
 20
876.0370738319
 30
0.0
 11
1629.405962146
 21
876.0370738319
 31
0.0
  0
LINE
  5
361
100
AcDbEntity
  8
0
100
AcDbLine
 62
7
  6
CONTINUOUS
 10
1629.405962146
 20
877.2370738319
 30
0.0
 11
1569.405962146
 21
877.2370738319
 31
0.0
  0
LINE
  5
362
100
AcDbEntity
  8
0
100
AcDbLine
 62
7
  6
CONTINUOUS
 10
1620.905962146
 20
896.0370738319
 30
0.0
 11
1577.905962146
 21
896.0370738319
 31
0.0
  0
LINE
  5
363
100
AcDbEntity
  8
0
100
AcDbLine
 62
9
  6
CONTINUOUS
 10
1577.905962146
 20
896.5370738319
 30
0.0
 11
1579.905962146
 21
896.5370738319
 31
0.0
  0
LINE
  5
364
100
AcDbEntity
  8
0
100
AcDbLine
 62
9
  6
CONTINUOUS
 10
1618.905962146
 20
896.5370738319
 30
0.0
 11
1620.905962146
 21
896.5370738319
 31
0.0
  0
LINE
  5
365
100
AcDbEntity
  8
0
100
AcDbLine
 62
7
  6
CONTINUOUS
 10
1618.905962146
 20
897.2370738319
 30
0.0
 11
1579.905962146
 21
897.2370738319
 31
0.0
  0
LINE
  5
366
100
AcDbEntity
  8
0
100
AcDbLine
 62
7
  6
CONTINUOUS
 10
1620.405962146
 20
900.2370738319
 30
0.0
 11
1578.405962146
 21
900.2370738319
 31
0.0
  0
ARC
  5
367
100
AcDbEntity
  8
0
100
AcDbCircle
 62
7
  6
CONTINUOUS
 10
150.0213596696
 20
96.4370738319
 30
0.0
 40
3.0
100
AcDbArc
 50
90.0
 51
103.57
  0
ARC
  5
368
100
AcDbEntity
  8
0
100
AcDbCircle
 62
7
  6
CONTINUOUS
 10
231.307496067
 20
96.4370738319
 30
0.0
 40
3.0
100
AcDbArc
 50
76.43
 51
90.0
  0
ARC
  5
369
100
AcDbEntity
  8
0
100
AcDbCircle
 62
7
  6
CONTINUOUS
 10
700.0213596696
 20
96.4370738319
 30
0.0
 40
3.0
100
AcDbArc
 50
90.0
 51
103.57
  0
ARC
  5
36A
100
AcDbEntity
  8
0
100
AcDbCircle
 62
7
  6
CONTINUOUS
 10
154.1747680897
 20
77.0370738319
 30
0.0
 40
1.0
100
AcDbArc
 50
199.2245803205
 51
270.0
  0
ARC
  5
36B
100
AcDbEntity
  8
0
100
AcDbCircle
 62
7
  6
CONTINUOUS
 10
227.1540876469
 20
77.0370738319
 30
0.0
 40
1.0
100
AcDbArc
 50
270.0
 51
340.7754196795
  0
ARC
  5
36C
100
AcDbEntity
  8
0
100
AcDbCircle
 62
7
  6
CONTINUOUS
 10
704.1747680897
 20
77.0370738319
 30
0.0
 40
1.0
100
AcDbArc
 50
199.2245803205
 51
270.0
  0
CIRCLE
  5
36D
100
AcDbEntity
  8
0
100
AcDbCircle
 62
7
  6
CONTINUOUS
 10
291.1644278683
 20
883.9370738319
 30
0.0
 40
1.75
  0
ARC
  5
36E
100
AcDbEntity
  8
0
100
AcDbCircle
 62
7
  6
CONTINUOUS
 10
234.1644278683
 20
881.7370738319
 30
0.0
 40
1.6
100
AcDbArc
 50
180.0
 51
360.0
  0
ARC
  5
36F
100
AcDbEntity
  8
0
100
AcDbCircle
 62
7
  6
CONTINUOUS
 10
234.1644278683
 20
883.9370738319
 30
0.0
 40
1.6
100
AcDbArc
 50
0.0
 51
180.0
  0
ARC
  5
370
100
AcDbEntity
  8
0
100
AcDbCircle
 62
7
  6
CONTINUOUS
 10
234.1644278683
 20
885.9370738319
 30
0.0
 40
1.35
100
AcDbArc
 50
217.1709716542
 51
322.8290254464
  0
CIRCLE
  5
371
100
AcDbEntity
  8
0
100
AcDbCircle
 62
7
  6
CONTINUOUS
 10
234.1644278683
 20
881.7370738319
 30
0.0
 40
1.35
  0
ARC
  5
372
100
AcDbEntity
  8
0
100
AcDbCircle
 62
7
  6
CONTINUOUS
 10
736.9144278683
 20
870.1623368716
 30
0.0
 40
0.5
100
AcDbArc
 50
0.0
 51
73.7012036185
  0
ARC
  5
373
100
AcDbEntity
  8
0
100
AcDbCircle
 62
7
  6
CONTINUOUS
 10
186.9144278683
 20
870.1623368716
 30
0.0
 40
0.5
100
AcDbArc
 50
0.0
 51
73.7012036185
  0
ARC
  5
374
100
AcDbEntity
  8
0
100
AcDbCircle
 62
7
  6
CONTINUOUS
 10
194.4144278683
 20
870.1623368716
 30
0.0
 40
0.5
100
AcDbArc
 50
106.2987963815
 51
180.0
  0
ARC
  5
375
100
AcDbEntity
  8
0
100
AcDbCircle
 62
7
  6
CONTINUOUS
 10
250.6644278683
 20
899.7370738319
 30
0.0
 40
0.5
100
AcDbArc
 50
0.0
 51
90.0
  0
ARC
  5
376
100
AcDbEntity
  8
0
100
AcDbCircle
 62
7
  6
CONTINUOUS
 10
210.6644278683
 20
896.5370738319
 30
0.0
 40
0.5
100
AcDbArc
 50
270.0
 51
360.0
  0
ARC
  5
377
100
AcDbEntity
  8
0
100
AcDbCircle
 62
7
  6
CONTINUOUS
 10
720.6144278683
 20
875.761916008
 30
0.0
 40
0.3
100
AcDbArc
 50
180.0
 51
253.7012036185
  0
ARC
  5
378
100
AcDbEntity
  8
0
100
AcDbCircle
 62
7
  6
CONTINUOUS
 10
170.6144278683
 20
875.761916008
 30
0.0
 40
0.3
100
AcDbArc
 50
180.0
 51
253.7012036185
  0
ARC
  5
379
100
AcDbEntity
  8
0
100
AcDbCircle
 62
7
  6
CONTINUOUS
 10
210.7144278683
 20
875.761916008
 30
0.0
 40
0.3
100
AcDbArc
 50
286.2987963815
 51
360.0
  0
ARC
  5
37A
100
AcDbEntity
  8
0
100
AcDbCircle
 62
7
  6
CONTINUOUS
 10
1250.0213596696
 20
96.4370738319
 30
0.0
 40
3.0
100
AcDbArc
 50
90.0
 51
103.57
  0
ARC
  5
37B
100
AcDbEntity
  8
0
100
AcDbCircle
 62
7
  6
CONTINUOUS
 10
1331.307496067
 20
96.4370738319
 30
0.0
 40
3.0
100
AcDbArc
 50
76.43
 51
90.0
  0
ARC
  5
37C
100
AcDbEntity
  8
0
100
AcDbCircle
 62
7
  6
CONTINUOUS
 10
781.307496067
 20
96.4370738319
 30
0.0
 40
3.0
100
AcDbArc
 50
76.43
 51
90.0
  0
ARC
  5
37D
100
AcDbEntity
  8
0
100
AcDbCircle
 62
7
  6
CONTINUOUS
 10
1254.1747680897
 20
77.0370738319
 30
0.0
 40
1.0
100
AcDbArc
 50
199.2245803205
 51
270.0
  0
ARC
  5
37E
100
AcDbEntity
  8
0
100
AcDbCircle
 62
7
  6
CONTINUOUS
 10
1327.1540876469
 20
77.0370738319
 30
0.0
 40
1.0
100
AcDbArc
 50
270.0
 51
340.7754196795
  0
ARC
  5
37F
100
AcDbEntity
  8
0
100
AcDbCircle
 62
7
  6
CONTINUOUS
 10
777.1540876469
 20
77.0370738319
 30
0.0
 40
1.0
100
AcDbArc
 50
270.0
 51
340.7754196795
  0
CIRCLE
  5
380
100
AcDbEntity
  8
0
100
AcDbCircle
 62
7
  6
CONTINUOUS
 10
1190.1644278683
 20
883.9370738319
 30
0.0
 40
1.75
  0
ARC
  5
381
100
AcDbEntity
  8
0
100
AcDbCircle
 62
7
  6
CONTINUOUS
 10
740.6644278683
 20
881.7370738319
 30
0.0
 40
1.6
100
AcDbArc
 50
180.0
 51
360.0
  0
ARC
  5
382
100
AcDbEntity
  8
0
100
AcDbCircle
 62
7
  6
CONTINUOUS
 10
740.6644278683
 20
883.9370738319
 30
0.0
 40
1.6
100
AcDbArc
 50
0.0
 51
180.0
  0
ARC
  5
383
100
AcDbEntity
  8
0
100
AcDbCircle
 62
7
  6
CONTINUOUS
 10
1247.1644278683
 20
881.7370738319
 30
0.0
 40
1.6
100
AcDbArc
 50
180.0
 51
360.0
  0
ARC
  5
384
100
AcDbEntity
  8
0
100
AcDbCircle
 62
7
  6
CONTINUOUS
 10
1247.1644278683
 20
883.9370738319
 30
0.0
 40
1.6
100
AcDbArc
 50
0.0
 51
180.0
  0
CIRCLE
  5
385
100
AcDbEntity
  8
0
100
AcDbCircle
 62
7
  6
CONTINUOUS
 10
740.6644278683
 20
881.7370738319
 30
0.0
 40
1.35
  0
ARC
  5
386
100
AcDbEntity
  8
0
100
AcDbCircle
 62
7
  6
CONTINUOUS
 10
1247.1644278683
 20
885.9370738319
 30
0.0
 40
1.35
100
AcDbArc
 50
217.1709716542
 51
322.8290254464
  0
ARC
  5
387
100
AcDbEntity
  8
0
100
AcDbCircle
 62
7
  6
CONTINUOUS
 10
740.6644278683
 20
885.9370738319
 30
0.0
 40
1.35
100
AcDbArc
 50
217.1709716542
 51
322.8290254464
  0
CIRCLE
  5
388
100
AcDbEntity
  8
0
100
AcDbCircle
 62
7
  6
CONTINUOUS
 10
1247.1644278683
 20
881.7370738319
 30
0.0
 40
1.35
  0
ARC
  5
389
100
AcDbEntity
  8
0
100
AcDbCircle
 62
7
  6
CONTINUOUS
 10
1286.9144278683
 20
870.1623368716
 30
0.0
 40
0.5
100
AcDbArc
 50
0.0
 51
73.7012036184
  0
ARC
  5
38A
100
AcDbEntity
  8
0
100
AcDbCircle
 62
7
  6
CONTINUOUS
 10
744.4144278683
 20
870.1623368716
 30
0.0
 40
0.5
100
AcDbArc
 50
106.2987963815
 51
180.0
  0
ARC
  5
38B
100
AcDbEntity
  8
0
100
AcDbCircle
 62
7
  6
CONTINUOUS
 10
1294.4144278683
 20
870.1623368716
 30
0.0
 40
0.5
100
AcDbArc
 50
106.2987963815
 51
180.0
  0
ARC
  5
38C
100
AcDbEntity
  8
0
100
AcDbCircle
 62
7
  6
CONTINUOUS
 10
1286.2644278683
 20
896.7370738319
 30
0.0
 40
0.5
100
AcDbArc
 50
180.0
 51
270.0
  0
ARC
  5
38D
100
AcDbEntity
  8
0
100
AcDbCircle
 62
7
  6
CONTINUOUS
 10
1295.0644278683
 20
896.7370738319
 30
0.0
 40
0.5
100
AcDbArc
 50
270.0
 51
360.0
  0
ARC
  5
38E
100
AcDbEntity
  8
0
100
AcDbCircle
 62
7
  6
CONTINUOUS
 10
1230.6644278683
 20
899.7370738319
 30
0.0
 40
0.5
100
AcDbArc
 50
90.0
 51
180.0
  0
ARC
  5
38F
100
AcDbEntity
  8
0
100
AcDbCircle
 62
7
  6
CONTINUOUS
 10
1270.6644278683
 20
896.5370738319
 30
0.0
 40
0.5
100
AcDbArc
 50
180.0
 51
270.0
  0
ARC
  5
390
100
AcDbEntity
  8
0
100
AcDbCircle
 62
7
  6
CONTINUOUS
 10
760.7144278683
 20
875.761916008
 30
0.0
 40
0.3
100
AcDbArc
 50
286.2987963815
 51
360.0
  0
ARC
  5
391
100
AcDbEntity
  8
0
100
AcDbCircle
 62
7
  6
CONTINUOUS
 10
1270.6144278683
 20
875.761916008
 30
0.0
 40
0.3
100
AcDbArc
 50
180.0
 51
253.7012036185
  0
ARC
  5
392
100
AcDbEntity
  8
0
100
AcDbCircle
 62
7
  6
CONTINUOUS
 10
1310.7144278683
 20
875.761916008
 30
0.0
 40
0.3
100
AcDbArc
 50
286.2987963815
 51
360.0
  0
CIRCLE
  5
393
100
AcDbEntity
  8
0
100
AcDbCircle
 62
7
  6
CONTINUOUS
 10
1290.6644278683
 20
1086.153722331
 30
0.0
 40
100.0
  0
CIRCLE
  5
394
100
AcDbEntity
  8
0
100
AcDbCircle
 62
7
  6
CONTINUOUS
 10
190.6644278683
 20
1086.153722331
 30
0.0
 40
100.0
  0
CIRCLE
  5
395
100
AcDbEntity
  8
0
100
AcDbCircle
 62
7
  6
CONTINUOUS
 10
740.6644278683
 20
1086.153722331
 30
0.0
 40
100.0
  0
CIRCLE
  5
396
100
AcDbEntity
  8
0
100
AcDbCircle
 62
7
  6
CONTINUOUS
 10
1290.6644278683
 20
1086.153722331
 30
0.0
 40
99.648050255
  0
CIRCLE
  5
397
100
AcDbEntity
  8
0
100
AcDbCircle
 62
7
  6
CONTINUOUS
 10
740.6644278683
 20
1086.153722331
 30
0.0
 40
99.648050255
  0
CIRCLE
  5
398
100
AcDbEntity
  8
0
100
AcDbCircle
 62
7
  6
CONTINUOUS
 10
190.6644278683
 20
1086.153722331
 30
0.0
 40
99.648050255
  0
CIRCLE
  5
399
100
AcDbEntity
  8
0
100
AcDbCircle
 62
7
  6
CONTINUOUS
 10
1290.6644278683
 20
1086.153722331
 30
0.0
 40
43.7961119406
  0
CIRCLE
  5
39A
100
AcDbEntity
  8
0
100
AcDbCircle
 62
7
  6
CONTINUOUS
 10
190.6644278683
 20
1086.153722331
 30
0.0
 40
43.7961119406
  0
CIRCLE
  5
39B
100
AcDbEntity
  8
0
100
AcDbCircle
 62
7
  6
CONTINUOUS
 10
740.6644278683
 20
1086.153722331
 30
0.0
 40
43.7961119406
  0
CIRCLE
  5
39C
100
AcDbEntity
  8
0
100
AcDbCircle
 62
9
  6
CONTINUOUS
 10
1290.6644278683
 20
1086.153722331
 30
0.0
 40
43.7682295391
  0
CIRCLE
  5
39D
100
AcDbEntity
  8
0
100
AcDbCircle
 62
9
  6
CONTINUOUS
 10
740.6644278683
 20
1086.153722331
 30
0.0
 40
43.7682295391
  0
CIRCLE
  5
39E
100
AcDbEntity
  8
0
100
AcDbCircle
 62
9
  6
CONTINUOUS
 10
190.6644278683
 20
1086.153722331
 30
0.0
 40
43.7682295391
  0
CIRCLE
  5
39F
100
AcDbEntity
  8
0
100
AcDbCircle
 62
9
  6
CONTINUOUS
 10
740.6644278683
 20
1086.153722331
 30
0.0
 40
37.4338949756
  0
CIRCLE
  5
3A0
100
AcDbEntity
  8
0
100
AcDbCircle
 62
9
  6
CONTINUOUS
 10
1290.6644278683
 20
1086.153722331
 30
0.0
 40
37.4338949756
  0
CIRCLE
  5
3A1
100
AcDbEntity
  8
0
100
AcDbCircle
 62
9
  6
CONTINUOUS
 10
190.6644278683
 20
1086.153722331
 30
0.0
 40
37.4338949756
  0
CIRCLE
  5
3A2
100
AcDbEntity
  8
0
100
AcDbCircle
 62
9
  6
CONTINUOUS
 10
740.6644278683
 20
1086.153722331
 30
0.0
 40
36.4896597786
  0
CIRCLE
  5
3A3
100
AcDbEntity
  8
0
100
AcDbCircle
 62
9
  6
CONTINUOUS
 10
1290.6644278683
 20
1086.153722331
 30
0.0
 40
36.4896597786
  0
CIRCLE
  5
3A4
100
AcDbEntity
  8
0
100
AcDbCircle
 62
9
  6
CONTINUOUS
 10
190.6644278683
 20
1086.153722331
 30
0.0
 40
36.4896597786
  0
CIRCLE
  5
3A5
100
AcDbEntity
  8
0
100
AcDbCircle
 62
7
  6
CONTINUOUS
 10
1290.6644278683
 20
1086.153722331
 30
0.0
 40
29.4
  0
CIRCLE
  5
3A6
100
AcDbEntity
  8
0
100
AcDbCircle
 62
7
  6
CONTINUOUS
 10
740.6644278683
 20
1086.153722331
 30
0.0
 40
29.4
  0
CIRCLE
  5
3A7
100
AcDbEntity
  8
0
100
AcDbCircle
 62
7
  6
CONTINUOUS
 10
190.6644278683
 20
1086.153722331
 30
0.0
 40
29.4
  0
ARC
  5
3A8
100
AcDbEntity
  8
0
100
AcDbCircle
 62
7
  6
CONTINUOUS
 10
1640.0490303447
 20
96.4370738319
 30
0.0
 40
3.0
100
AcDbArc
 50
76.43
 51
90.0
  0
ARC
  5
3A9
100
AcDbEntity
  8
0
100
AcDbCircle
 62
7
  6
CONTINUOUS
 10
1558.7628939473
 20
96.4370738319
 30
0.0
 40
3.0
100
AcDbArc
 50
90.0
 51
103.57
  0
ARC
  5
3AA
100
AcDbEntity
  8
0
100
AcDbCircle
 62
7
  6
CONTINUOUS
 10
1618.505962146
 20
894.8370738319
 30
0.0
 40
2.4
100
AcDbArc
 50
80.4059317731
 51
90.0
  0
ARC
  5
3AB
100
AcDbEntity
  8
0
100
AcDbCircle
 62
7
  6
CONTINUOUS
 10
1580.305962146
 20
894.8370738319
 30
0.0
 40
2.4
100
AcDbArc
 50
90.0
 51
99.5940682269
  0
ARC
  5
3AC
100
AcDbEntity
  8
0
100
AcDbCircle
 62
7
  6
CONTINUOUS
 10
1562.9163023674
 20
77.0370738319
 30
0.0
 40
1.0
100
AcDbArc
 50
199.2245803205
 51
270.0
  0
ARC
  5
3AD
100
AcDbEntity
  8
0
100
AcDbCircle
 62
7
  6
CONTINUOUS
 10
1635.8956219246
 20
77.0370738319
 30
0.0
 40
1.0
100
AcDbArc
 50
270.0
 51
340.7754196795
  0
ARC
  5
3AE
100
AcDbEntity
  8
0
100
AcDbCircle
 62
7
  6
CONTINUOUS
 10
1595.655962146
 20
870.1623368716
 30
0.0
 40
0.5
100
AcDbArc
 50
0.0
 51
73.7012036185
  0
ARC
  5
3AF
100
AcDbEntity
  8
0
100
AcDbCircle
 62
7
  6
CONTINUOUS
 10
1603.155962146
 20
870.1623368716
 30
0.0
 40
0.5
100
AcDbArc
 50
106.2987963815
 51
180.0
  0
ARC
  5
3B0
100
AcDbEntity
  8
0
100
AcDbCircle
 62
7
  6
CONTINUOUS
 10
1578.405962146
 20
899.7370738319
 30
0.0
 40
0.5
100
AcDbArc
 50
90.0
 51
180.0
  0
ARC
  5
3B1
100
AcDbEntity
  8
0
100
AcDbCircle
 62
7
  6
CONTINUOUS
 10
1620.405962146
 20
899.7370738319
 30
0.0
 40
0.5
100
AcDbArc
 50
0.0
 51
90.0
  0
ARC
  5
3B2
100
AcDbEntity
  8
0
100
AcDbCircle
 62
7
  6
CONTINUOUS
 10
1619.455962146
 20
875.761916008
 30
0.0
 40
0.3
100
AcDbArc
 50
286.2987963819
 51
360.0
  0
ARC
  5
3B3
100
AcDbEntity
  8
0
100
AcDbCircle
 62
7
  6
CONTINUOUS
 10
1579.355962146
 20
875.761916008
 30
0.0
 40
0.3
100
AcDbArc
 50
180.0
 51
253.7012036182
  0
SPLINE
  5
3B4
100
AcDbEntity
  8
0
100
AcDbSpline
 62
7
  6
CONTINUOUS
 70
0
 71
3
 72
15
 73
11
 74
0
 42
0.0000001
 43
0.0000001
 44
0.0000000001
 40
0.0
 40
0.0
 40
0.0
 40
0.0
 40
0.1229957971
 40
0.2482348716
 40
0.3749392035
 40
0.5021969518
 40
0.6290728616
 40
0.754714621
 40
0.878466494
 40
1.0
 40
1.0
 40
1.0
 40
1.0
 10
711.7025072917
 20
76.0370553512
 30
0.0
 10
712.5487634169
 20
74.9571829499
 30
0.0
 10
714.3928405466
 20
72.8815435292
 30
0.0
 10
717.5085082185
 20
70.0800859429
 30
0.0
 10
720.9408373596
 20
67.5949362922
 30
0.0
 10
724.6260019017
 20
65.4667575627
 30
0.0
 10
728.5010003264
 20
63.7358909721
 30
0.0
 10
732.5034023654
 20
62.4434579459
 30
0.0
 10
736.569904401
 20
61.6312442671
 30
0.0
 10
739.3087791814
 20
61.4370738319
 30
0.0
 10
740.6644278683
 20
61.4370738319
 30
0.0
  0
SPLINE
  5
3B5
100
AcDbEntity
  8
0
100
AcDbSpline
 62
7
  6
CONTINUOUS
 70
0
 71
3
 72
15
 73
11
 74
0
 42
0.0000001
 43
0.0000001
 44
0.0000000001
 40
0.0
 40
0.0
 40
0.0
 40
0.0
 40
0.1229957971
 40
0.2482348716
 40
0.3749392035
 40
0.5021969518
 40
0.6290728616
 40
0.754714621
 40
0.878466494
 40
1.0
 40
1.0
 40
1.0
 40
1.0
 10
769.626348445
 20
76.0370553512
 30
0.0
 10
768.7800923197
 20
74.9571829499
 30
0.0
 10
766.93601519
 20
72.8815435292
 30
0.0
 10
763.8203475182
 20
70.0800859429
 30
0.0
 10
760.388018377
 20
67.5949362922
 30
0.0
 10
756.7028538349
 20
65.4667575627
 30
0.0
 10
752.8278554103
 20
63.7358909721
 30
0.0
 10
748.8254533712
 20
62.4434579459
 30
0.0
 10
744.7589513357
 20
61.6312442671
 30
0.0
 10
742.0200765552
 20
61.4370738319
 30
0.0
 10
740.6644278683
 20
61.4370738319
 30
0.0
  0
SPLINE
  5
3B6
100
AcDbEntity
  8
0
100
AcDbSpline
 62
7
  6
CONTINUOUS
 70
0
 71
3
 72
15
 73
11
 74
0
 42
0.0000001
 43
0.0000001
 44
0.0000000001
 40
0.0
 40
0.0
 40
0.0
 40
0.0
 40
0.1229957971
 40
0.2482348716
 40
0.3749392035
 40
0.5021969518
 40
0.6290728616
 40
0.754714621
 40
0.878466494
 40
1.0
 40
1.0
 40
1.0
 40
1.0
 10
161.7025072917
 20
76.0370553512
 30
0.0
 10
162.5487634169
 20
74.9571829499
 30
0.0
 10
164.3928405466
 20
72.8815435292
 30
0.0
 10
167.5085082185
 20
70.0800859429
 30
0.0
 10
170.9408373596
 20
67.5949362922
 30
0.0
 10
174.6260019017
 20
65.4667575627
 30
0.0
 10
178.5010003264
 20
63.7358909721
 30
0.0
 10
182.5034023654
 20
62.4434579459
 30
0.0
 10
186.569904401
 20
61.6312442671
 30
0.0
 10
189.3087791814
 20
61.4370738319
 30
0.0
 10
190.6644278683
 20
61.4370738319
 30
0.0
  0
SPLINE
  5
3B7
100
AcDbEntity
  8
0
100
AcDbSpline
 62
7
  6
CONTINUOUS
 70
0
 71
3
 72
15
 73
11
 74
0
 42
0.0000001
 43
0.0000001
 44
0.0000000001
 40
0.0
 40
0.0
 40
0.0
 40
0.0
 40
0.1229957971
 40
0.2482348716
 40
0.3749392035
 40
0.5021969518
 40
0.6290728616
 40
0.754714621
 40
0.878466494
 40
1.0
 40
1.0
 40
1.0
 40
1.0
 10
219.626348445
 20
76.0370553512
 30
0.0
 10
218.7800923197
 20
74.9571829499
 30
0.0
 10
216.93601519
 20
72.8815435292
 30
0.0
 10
213.8203475182
 20
70.0800859429
 30
0.0
 10
210.388018377
 20
67.5949362922
 30
0.0
 10
206.7028538349
 20
65.4667575627
 30
0.0
 10
202.8278554103
 20
63.7358909721
 30
0.0
 10
198.8254533712
 20
62.4434579459
 30
0.0
 10
194.7589513357
 20
61.6312442671
 30
0.0
 10
192.0200765552
 20
61.4370738319
 30
0.0
 10
190.6644278683
 20
61.4370738319
 30
0.0
  0
SPLINE
  5
3B8
100
AcDbEntity
  8
0
100
AcDbSpline
 62
7
  6
CONTINUOUS
 70
0
 71
3
 72
15
 73
11
 74
0
 42
0.0000001
 43
0.0000001
 44
0.0000000001
 40
0.0
 40
0.0
 40
0.0
 40
0.0
 40
0.1229957971
 40
0.2482348716
 40
0.3749392035
 40
0.5021969518
 40
0.6290728616
 40
0.754714621
 40
0.878466494
 40
1.0
 40
1.0
 40
1.0
 40
1.0
 10
1261.7025072917
 20
76.0370553512
 30
0.0
 10
1262.5487634169
 20
74.9571829499
 30
0.0
 10
1264.3928405466
 20
72.8815435292
 30
0.0
 10
1267.5085082185
 20
70.0800859429
 30
0.0
 10
1270.9408373596
 20
67.5949362922
 30
0.0
 10
1274.6260019017
 20
65.4667575627
 30
0.0
 10
1278.5010003264
 20
63.7358909721
 30
0.0
 10
1282.5034023654
 20
62.4434579459
 30
0.0
 10
1286.569904401
 20
61.6312442671
 30
0.0
 10
1289.3087791814
 20
61.4370738319
 30
0.0
 10
1290.6644278683
 20
61.4370738319
 30
0.0
  0
SPLINE
  5
3B9
100
AcDbEntity
  8
0
100
AcDbSpline
 62
7
  6
CONTINUOUS
 70
0
 71
3
 72
15
 73
11
 74
0
 42
0.0000001
 43
0.0000001
 44
0.0000000001
 40
0.0
 40
0.0
 40
0.0
 40
0.0
 40
0.1229957971
 40
0.2482348716
 40
0.3749392035
 40
0.5021969518
 40
0.6290728616
 40
0.754714621
 40
0.878466494
 40
1.0
 40
1.0
 40
1.0
 40
1.0
 10
1319.626348445
 20
76.0370553512
 30
0.0
 10
1318.7800923197
 20
74.9571829499
 30
0.0
 10
1316.93601519
 20
72.8815435292
 30
0.0
 10
1313.8203475182
 20
70.0800859429
 30
0.0
 10
1310.388018377
 20
67.5949362922
 30
0.0
 10
1306.7028538349
 20
65.4667575627
 30
0.0
 10
1302.8278554103
 20
63.7358909721
 30
0.0
 10
1298.8254533712
 20
62.4434579459
 30
0.0
 10
1294.7589513357
 20
61.6312442671
 30
0.0
 10
1292.0200765552
 20
61.4370738319
 30
0.0
 10
1290.6644278683
 20
61.4370738319
 30
0.0
  0
SPLINE
  5
3BA
100
AcDbEntity
  8
0
100
AcDbSpline
 62
7
  6
CONTINUOUS
 70
0
 71
3
 72
15
 73
11
 74
0
 42
0.0000001
 43
0.0000001
 44
0.0000000001
 40
0.0
 40
0.0
 40
0.0
 40
0.0
 40
0.1229957971
 40
0.2482348716
 40
0.3749392035
 40
0.5021969518
 40
0.6290728616
 40
0.754714621
 40
0.878466494
 40
1.0
 40
1.0
 40
1.0
 40
1.0
 10
1570.4440415694
 20
76.0370553512
 30
0.0
 10
1571.2902976946
 20
74.9571829499
 30
0.0
 10
1573.1343748243
 20
72.8815435292
 30
0.0
 10
1576.2500424961
 20
70.0800859429
 30
0.0
 10
1579.6823716373
 20
67.5949362922
 30
0.0
 10
1583.3675361794
 20
65.4667575627
 30
0.0
 10
1587.242534604
 20
63.7358909721
 30
0.0
 10
1591.2449366431
 20
62.4434579459
 30
0.0
 10
1595.3114386786
 20
61.6312442671
 30
0.0
 10
1598.0503134591
 20
61.4370738319
 30
0.0
 10
1599.405962146
 20
61.4370738319
 30
0.0
  0
SPLINE
  5
3BB
100
AcDbEntity
  8
0
100
AcDbSpline
 62
7
  6
CONTINUOUS
 70
0
 71
3
 72
15
 73
11
 74
0
 42
0.0000001
 43
0.0000001
 44
0.0000000001
 40
0.0
 40
0.0
 40
0.0
 40
0.0
 40
0.1229957971
 40
0.2482348716
 40
0.3749392035
 40
0.5021969518
 40
0.6290728616
 40
0.754714621
 40
0.878466494
 40
1.0
 40
1.0
 40
1.0
 40
1.0
 10
1628.3678827226
 20
76.0370553512
 30
0.0
 10
1627.5216265974
 20
74.9571829499
 30
0.0
 10
1625.6775494677
 20
72.8815435292
 30
0.0
 10
1622.5618817959
 20
70.0800859429
 30
0.0
 10
1619.1295526547
 20
67.5949362922
 30
0.0
 10
1615.4443881126
 20
65.4667575627
 30
0.0
 10
1611.569389688
 20
63.7358909721
 30
0.0
 10
1607.5669876489
 20
62.4434579459
 30
0.0
 10
1603.5004856134
 20
61.6312442671
 30
0.0
 10
1600.7616108329
 20
61.4370738319
 30
0.0
 10
1599.405962146
 20
61.4370738319
 30
0.0
  0
SPLINE
  5
3BC
100
AcDbEntity
  8
0
100
AcDbSpline
 62
7
  6
CONTINUOUS
 70
0
 71
3
 72
28
 73
24
 74
0
 42
0.0000001
 43
0.0000001
 44
0.0000000001
 40
0.0
 40
0.0
 40
0.0
 40
0.0
 40
0.0931744514
 40
0.1854008064
 40
0.275852926
 40
0.3639312315
 40
0.5304521433
 40
0.607841466
 40
0.6805985552
 40
0.7481209178
 40
0.8095544127
 40
0.8640067807
 40
0.9105609104
 40
0.9305752373
 40
0.948273019
 40
0.9635479133
 40
0.9762884432
 40
0.986379362
 40
0.9937252363
 40
0.9963491403
 40
0.9982683796
 40
0.9994832202
 40
1.0
 40
1.0
 40
1.0
 40
1.0
 10
1597.1589854846
 20
110.4370738319
 30
0.0
 10
1597.1589854846
 20
110.3697744258
 30
0.0
 10
1597.1531750652
 20
110.2357749849
 30
0.0
 10
1597.1266329132
 20
110.0380571465
 30
0.0
 10
1597.0848297723
 20
109.8468235605
 30
0.0
 10
1597.0154548324
 20
109.6072924816
 30
0.0
 10
1596.9282354267
 20
109.3833632702
 30
0.0
 10
1596.8313753232
 20
109.1761344391
 30
0.0
 10
1596.7600120175
 20
109.0360110549
 30
0.0
 10
1596.6905827849
 20
108.907907351
 30
0.0
 10
1596.624797461
 20
108.7929092029
 30
0.0
 10
1596.5646611605
 20
108.692157259
 30
0.0
 10
1596.5188431786
 20
108.6177121853
 30
0.0
 10
1596.4865399737
 20
108.5661268026
 30
0.0
 10
1596.4661346952
 20
108.5337475254
 30
0.0
 10
1596.448500628
 20
108.5058336742
 30
0.0
 10
1596.4338038855
 20
108.4825582374
 30
0.0
 10
1596.4222169611
 20
108.4641056255
 30
0.0
 10
1596.4145068042
 20
108.4518174082
 30
0.0
 10
1596.4100688261
 20
108.4444921941
 30
0.0
 10
1596.4078533505
 20
108.4409262721
 30
0.0
 10
1596.406705715
 20
108.4386258553
 30
0.0
 10
1596.4059622722
 20
108.4375130067
 30
0.0
 10
1596.4059621697
 20
108.4371397394
 30
0.0
  0
SPLINE
  5
3BD
100
AcDbEntity
  8
0
100
AcDbSpline
 62
7
  6
CONTINUOUS
 70
0
 71
3
 72
29
 73
25
 74
0
 42
0.0000001
 43
0.0000001
 44
0.0000000001
 40
0.0
 40
0.0
 40
0.0
 40
0.0
 40
0.1852960636
 40
0.2758393367
 40
0.3639589218
 40
0.4490856234
 40
0.5307031421
 40
0.6082675621
 40
0.6811802105
 40
0.7487786654
 40
0.8102795998
 40
0.8647951064
 40
0.9113479103
 40
0.9313373998
 40
0.9489933784
 40
0.9642048193
 40
0.9768522783
 40
0.9868203951
 40
0.9907734078
 40
0.9940284885
 40
0.9965802918
 40
0.9984253793
 40
0.999563094
 40
1.0
 40
1.0
 40
1.0
 40
1.0
 10
1597.1808697844
 20
110.4370738319
 30
0.0
 10
1597.1808697844
 20
110.3026011661
 30
0.0
 10
1597.1625108615
 20
110.1018575991
 30
0.0
 10
1597.1050562673
 20
109.843906442
 30
0.0
 10
1597.0508755815
 20
109.6601394858
 30
0.0
 10
1596.9875831247
 20
109.4862397065
 30
0.0
 10
1596.918217399
 20
109.3230006487
 30
0.0
 10
1596.8458433906
 20
109.1708636345
 30
0.0
 10
1596.7729626198
 20
109.0303512694
 30
0.0
 10
1596.7015657822
 20
108.9022873262
 30
0.0
 10
1596.6339176561
 20
108.787471267
 30
0.0
 10
1596.5720516342
 20
108.6870071712
 30
0.0
 10
1596.5249137865
 20
108.6128669812
 30
0.0
 10
1596.4916150447
 20
108.5616323129
 30
0.0
 10
1596.4704465933
 20
108.5296426753
 30
0.0
 10
1596.4519810137
 20
108.5022536113
 30
0.0
 10
1596.4364493574
 20
108.479621281
 30
0.0
 10
1596.4254603899
 20
108.4637699362
 30
0.0
 10
1596.41829512
 20
108.4535821512
 30
0.0
 10
1596.414204999
 20
108.4477737939
 30
0.0
 10
1596.4109445804
 20
108.4433452666
 30
0.0
 10
1596.4085980356
 20
108.4399315651
 30
0.0
 10
1596.4070034584
 20
108.4383045822
 30
0.0
 10
1596.4063241158
 20
108.4370738319
 30
0.0
 10
1596.4060070453
 20
108.4370738319
 30
0.0
  0
SPLINE
  5
3BE
100
AcDbEntity
  8
0
100
AcDbSpline
 62
7
  6
CONTINUOUS
 70
0
 71
3
 72
27
 73
23
 74
0
 42
0.0000001
 43
0.0000001
 44
0.0000000001
 40
0.0
 40
0.0
 40
0.0
 40
0.0
 40
0.185263718
 40
0.2757670689
 40
0.3638272498
 40
0.5303360757
 40
0.6077895828
 40
0.6805883941
 40
0.7480808411
 40
0.8094992922
 40
0.8639720466
 40
0.9105397821
 40
0.9305598983
 40
0.9482635711
 40
0.9635423448
 40
0.9762803345
 40
0.9863624052
 40
0.9937055446
 40
0.9963322699
 40
0.9982567225
 40
0.9994778374
 40
1.0
 40
1.0
 40
1.0
 40
1.0
 10
1597.1589854846
 20
116.4370738319
 30
0.0
 10
1597.1589854846
 20
116.5708655016
 30
0.0
 10
1597.1410513163
 20
116.7705572651
 30
0.0
 10
1597.0848346636
 20
117.0273604433
 30
0.0
 10
1597.0154826313
 20
117.2668971384
 30
0.0
 10
1596.9280705357
 20
117.4907183251
 30
0.0
 10
1596.8314002307
 20
117.6980617979
 30
0.0
 10
1596.7602397508
 20
117.8383225464
 30
0.0
 10
1596.6906057347
 20
117.9662860525
 30
0.0
 10
1596.6247107357
 20
118.0811727725
 30
0.0
 10
1596.5645665086
 20
118.1819113132
 30
0.0
 10
1596.5188662537
 20
118.256443644
 30
0.0
 10
1596.4867262001
 20
118.308139918
 30
0.0
 10
1596.4663460666
 20
118.340540623
 30
0.0
 10
1596.448635562
 20
118.3684054813
 30
0.0
 10
1596.4337978843
 20
118.3915793229
 30
0.0
 10
1596.4221222185
 20
118.4099590573
 30
0.0
 10
1596.4144010349
 20
118.4222306739
 30
0.0
 10
1596.4099919757
 20
118.4295758326
 30
0.0
 10
1596.4078036125
 20
118.4331701742
 30
0.0
 10
1596.4066784713
 20
118.4354943797
 30
0.0
 10
1596.4059544011
 20
118.4366294239
 30
0.0
 10
1596.4059609502
 20
118.4370064566
 30
0.0
  0
SPLINE
  5
3BF
100
AcDbEntity
  8
0
100
AcDbSpline
 62
7
  6
CONTINUOUS
 70
0
 71
3
 72
30
 73
26
 74
0
 42
0.0000001
 43
0.0000001
 44
0.0000000001
 40
0.0
 40
0.0
 40
0.0
 40
0.0
 40
0.0931880893
 40
0.1854367625
 40
0.2759284473
 40
0.3640659365
 40
0.4492231503
 40
0.5308174381
 40
0.608316398
 40
0.6811893897
 40
0.7488180406
 40
0.8103302547
 40
0.8648241328
 40
0.9113642262
 40
0.9313485458
 40
0.9489985991
 40
0.9642051967
 40
0.9768538664
 40
0.9868287809
 40
0.9907834591
 40
0.9940380291
 40
0.9965873458
 40
0.9984288265
 40
0.9995634707
 40
1.0
 40
1.0
 40
1.0
 40
1.0
 10
1597.1808697844
 20
116.4370738319
 30
0.0
 10
1597.1808697844
 20
116.5047147734
 30
0.0
 10
1597.1749270547
 20
116.6394036311
 30
0.0
 10
1597.1477774956
 20
116.8380958816
 30
0.0
 10
1597.1050486953
 20
117.0302057841
 30
0.0
 10
1597.0508536268
 20
117.2139815708
 30
0.0
 10
1596.9876276094
 20
117.3879656729
 30
0.0
 10
1596.9183194713
 20
117.5512208679
 30
0.0
 10
1596.8458072954
 20
117.7032280076
 30
0.0
 10
1596.7727298761
 20
117.8436061645
 30
0.0
 10
1596.701555385
 20
117.971824317
 30
0.0
 10
1596.6340054126
 20
118.08674555
 30
0.0
 10
1596.5721486622
 20
118.1872227025
 30
0.0
 10
1596.5248716446
 20
118.26126093
 30
0.0
 10
1596.4914209611
 20
118.3123893948
 30
0.0
 10
1596.4702411848
 20
118.3443659224
 30
0.0
 10
1596.4518653108
 20
118.3718139889
 30
0.0
 10
1596.4364729551
 20
118.3945502278
 30
0.0
 10
1596.4255516195
 20
118.4104612791
 30
0.0
 10
1596.4183944983
 20
118.4206649746
 30
0.0
 10
1596.4142936593
 20
118.4264657314
 30
0.0
 10
1596.4110129268
 20
118.4308763806
 30
0.0
 10
1596.4086366846
 20
118.434257474
 30
0.0
 10
1596.4070228189
 20
118.4358694035
 30
0.0
 10
1596.4063239019
 20
118.4370738319
 30
0.0
 10
1596.4060070453
 20
118.4370738319
 30
0.0
  0
ENDSEC
  0
SECTION
  2
OBJECTS
  0
DICTIONARY
  5
C
100
AcDbDictionary
280
0
281
1
  3
ACAD_GROUP
350
D
  3
ACAD_MLINESTYLE
350
17
  3
ACAD_LAYOUT
350
1A
  3
ACAD_PLOTSETTINGS
350
19
  3
ACAD_PLOTSTYLENAME
350
E
  0
DICTIONARY
  5
D
102
{ACAD_REACTORS
330
C
102
}
100
AcDbDictionary
280
0
281
1
  0
ACDBDICTIONARYWDFLT
  5
E
102
{ACAD_REACTORS
330
C
102
}
100
AcDbDictionary
281
1
  3
Normal
350
F
100
AcDbDictionaryWithDefault
340
F
  0
DICTIONARY
  5
17
102
{ACAD_REACTORS
330
C
102
}
100
AcDbDictionary
280
0
281
1
  3
Standard
350
18
  0
DICTIONARY
  5
19
102
{ACAD_REACTORS
330
C
102
}
100
AcDbDictionary
281
1
  0
DICTIONARY
  5
1A
102
{ACAD_REACTORS
330
C
102
}
100
AcDbDictionary
281
1
  3
Model
350
3C0
  3
Layout1
350
3C1
  0
ACDBPLACEHOLDER
  5
F
102
{ACAD_REACTORS
330
E
102
}
  0
MLINESTYLE
  5
18
102
{ACAD_REACTORS
330
17
102
}
100
AcDbMlineStyle
  2
STANDARD
 70
0
  3

 62
256
 51
90.0
 52
90.0
 71
2
 49
0.5
 62
256
  6
BYLAYER
 49
-0.5
 62
256
  6
BYLAYER
  0
LAYOUT
  5
3C0
102
{ACAD_REACTORS
330
1A
102
}
100
AcDbPlotSettings
  1

  2
none_device
  4

  6

 40
0.0
 41
0.0
 42
0.0
 43
0.0
 44
1782.0
 45
1260.0
 46
0.0
 47
0.0
 48
0.0
 49
0.0
140
0.0
141
0.0
142
1.0
143
1.0
 70
1024
 72
1
 73
0
 74
0
  7

 75
0
147
1.0
148
0.0
149
0.0
100
AcDbLayout
  1
Model
 70
0
 71
0
 10
0.0
 20
0.0
 11
1782.0
 21
1260.0
 12
0.0
 22
0.0
 32
0.0
 14
0.0
 24
0.0
 34
0.0
 15
0.0
 25
0.0
 35
0.0
146
0.0
 13
0.0
 23
0.0
 33
0.0
 16
1.0
 26
0.0
 36
0.0
 17
0.0
 27
1.0
 37
0.0
 76
0
330
291
345
0
346
0
  0
LAYOUT
  5
3C1
102
{ACAD_REACTORS
330
1A
102
}
100
AcDbPlotSettings
  1

  2
none_device
  4

  6

 40
0.0
 41
0.0
 42
0.0
 43
0.0
 44
1782.0
 45
1260.0
 46
0.0
 47
0.0
 48
0.0
 49
0.0
140
0.0
141
0.0
142
1.0
143
1.0
 70
0
 72
1
 73
0
 74
0
  7

 75
0
147
1.0
148
0.0
149
0.0
100
AcDbLayout
  1
Layout1
 70
0
 71
1
 10
0.0
 20
0.0
 11
1782.0
 21
1260.0
 12
0.0
 22
0.0
 32
0.0
 14
0.0
 24
0.0
 34
0.0
 15
0.0
 25
0.0
 35
0.0
146
0.0
 13
0.0
 23
0.0
 33
0.0
 16
1.0
 26
0.0
 36
0.0
 17
0.0
 27
1.0
 37
0.0
 76
0
330
292
345
0
346
0
  0
ENDSEC
  0
EOF
