999
DXF file: A0501100_DOI_BINARIO.dxf
999
Pro/ENGINEER 2023494 by Parametric Technology Corporation
  0
SECTION
  2
HEADER
  9
$ACADVER
  1
AC1027
  9
$DWGCODEPAGE
  3
ANSI_1252
  9
$EXTMAX
 10
297.0
 20
420.0
 30
0.0
  9
$EXTMIN
 10
0.0
 20
0.0
 30
0.0
  9
$LIMMIN
 10
0.0
 20
0.0
  9
$LIMMAX
 10
297.0
 20
420.0
  9
$VIEWCTR
 10
148.5
 20
210.0
  9
$VIEWSIZE
 40
420.0
  9
$CLAYER
  8
0
  9
$LTSCALE
 40
27.3777777778
  9
$CELTYPE
  6
BYLAYER
  9
$DIMSCALE
 40
1.0
  9
$DIMASZ
 40
4.0
  9
$DIMEXO
 40
1.0
  9
$DIMDLI
 40
18.9155555556
  9
$DIMEXE
 40
1.0
  9
$DIMCEN
 40
4.48
  9
$DIMLFAC
 40
1.0
  9
$DIMBLK
  1
_FILLED
  9
$DIMALT
 70
0
  9
$DIMALTF
 40
0.0393700787
  9
$DIMTXT
 40
3.0
  9
$DIMTOL
 70
1
  9
$DIMLIM
 70
0
  9
$DIMTFAC
 40
1.0
  9
$DIMTP
 40
0.001
  9
$DIMTM
 40
0.001
  9
$DIMGAP
 40
0.625
  9
$DIMDSEP
 70
46
  9
$AUNITS
 70
0
  9
$PDMODE
 70
3
  9
$PDSIZE
 40
0.3125
  9
$HANDSEED
  5
4EA
  9
$TILEMODE
 70
1
  9
$MEASUREMENT
 70
1
  9
$INSUNITS
 70
4
  0
ENDSEC
  0
SECTION
  2
CLASSES
  0
CLASS
  1
ACDBDICTIONARYWDFLT
  2
AcDbDictionaryWithDefault
  3
AutoCAD 2000
 90
0
 91
1
280
0
281
0
  0
CLASS
  1
ACDBPLACEHOLDER
  2
AcDbPlaceHolder
  3
AutoCAD 2000
 90
0
 91
1
280
0
281
0
  0
CLASS
  1
LAYOUT
  2
AcDbLayout
  3
AutoCAD 2000
 90
0
 91
0
280
0
281
0
  0
ENDSEC
  0
SECTION
  2
TABLES
  0
TABLE
  2
VPORT
  5
8
100
AcDbSymbolTable
 70
2
  0
VPORT
  5
1F4
100
AcDbSymbolTableRecord
100
AcDbViewportTableRecord
  2
*ACTIVE
 70
0
 10
0.0
 20
0.0
 11
1.0
 21
1.0
 12
148.5
 22
210.0
 13
0.0
 23
0.0
 14
1.0
 24
1.0
 15
0.0
 25
0.0
 16
0.0
 26
0.0
 36
1.0
 17
0.0
 27
0.0
 37
0.0
 40
420.0
 41
0.7071428571
 42
50.0
 43
0.0
 44
0.0
 50
0.0
 51
0.0
 71
0
 72
100
 73
1
 74
1
 75
0
 76
0
 77
0
 78
0
  0
ENDTAB
  0
TABLE
  2
LTYPE
  5
5
100
AcDbSymbolTable
 70
6
  0
LTYPE
  5
14
100
AcDbSymbolTableRecord
100
AcDbLinetypeTableRecord
  2
BYBLOCK
 70
0
  3

 72
65
 73
0
 40
0.0
  0
LTYPE
  5
15
100
AcDbSymbolTableRecord
100
AcDbLinetypeTableRecord
  2
BYLAYER
 70
0
  3

 72
65
 73
0
 40
0.0
  0
LTYPE
  5
16
100
AcDbSymbolTableRecord
100
AcDbLinetypeTableRecord
  2
CONTINUOUS
 70
64
  3
Solid line
 72
65
 73
0
 40
0.0
  0
LTYPE
  5
1F5
100
AcDbSymbolTableRecord
100
AcDbLinetypeTableRecord
  2
CENTER
 70
64
  3
____ _ ____ _ ____ _ ____ _ ____ _ ____ _ ____
 72
65
 73
4
 40
0.6
 49
0.375
 74
0
 49
-0.075
 74
0
 49
0.075
 74
0
 49
-0.075
 74
0
  0
LTYPE
  5
1F6
100
AcDbSymbolTableRecord
100
AcDbLinetypeTableRecord
  2
HIDDEN
 70
64
  3
- - - - - - - - - - - - - - - - - - - -
 72
65
 73
2
 40
0.2
 49
0.1
 74
0
 49
-0.1
 74
0
  0
LTYPE
  5
1F7
100
AcDbSymbolTableRecord
100
AcDbLinetypeTableRecord
  2
PHANTOM
 70
64
  3
_____ _ _ _____ _ _ _____ _ _ _____
 72
65
 73
6
 40
0.8
 49
0.45
 74
0
 49
-0.05
 74
0
 49
0.1
 74
0
 49
-0.05
 74
0
 49
0.1
 74
0
 49
-0.05
 74
0
  0
LTYPE
  5
1F8
100
AcDbSymbolTableRecord
100
AcDbLinetypeTableRecord
  2
DOT
 70
64
  3
. . . . . . . . . . . . . . . . . . . .
 72
65
 73
2
 40
0.2
 49
0.1
 74
0
 49
-0.1
 74
0
  0
LTYPE
  5
1F9
100
AcDbSymbolTableRecord
100
AcDbLinetypeTableRecord
  2
DASHED
 70
64
  3
- - - - - - - - - - - - - - - - - - - -
 72
65
 73
2
 40
0.2
 49
0.1
 74
0
 49
-0.1
 74
0
  0
ENDTAB
  0
TABLE
  2
LAYER
  5
2
100
AcDbSymbolTable
 70
36
  0
LAYER
  5
10
100
AcDbSymbolTableRecord
100
AcDbLayerTableRecord
  2
0
 70
0
 62
7
  6
CONTINUOUS
370
-3
390
F
  0
LAYER
  5
1FA
100
AcDbSymbolTableRecord
100
AcDbLayerTableRecord
  2
DEFAULT_1
 70
0
 62
7
  6
CENTER
370
-3
390
F
  0
LAYER
  5
1FB
100
AcDbSymbolTableRecord
100
AcDbLayerTableRecord
  2
DEFAULT_2
 70
0
 62
8
  6
HIDDEN
370
-3
390
F
  0
LAYER
  5
1FC
100
AcDbSymbolTableRecord
100
AcDbLayerTableRecord
  2
DEFAULT_3
 70
0
 62
7
  6
PHANTOM
370
-3
390
F
  0
LAYER
  5
1FD
100
AcDbSymbolTableRecord
100
AcDbLayerTableRecord
  2
1_ALL_PLANES
 70
0
 62
7
  6
CONTINUOUS
370
-3
390
F
  0
LAYER
  5
1FE
100
AcDbSymbolTableRecord
100
AcDbLayerTableRecord
  2
1__DEF_ASM_PLN
 70
0
 62
7
  6
CONTINUOUS
370
-3
390
F
  0
LAYER
  5
1FF
100
AcDbSymbolTableRecord
100
AcDbLayerTableRecord
  2
1__DEF_PLANES
 70
0
 62
7
  6
CONTINUOUS
370
-3
390
F
  0
LAYER
  5
200
100
AcDbSymbolTableRecord
100
AcDbLayerTableRecord
  2
2_ALL_CSYS
 70
0
 62
7
  6
CONTINUOUS
370
-3
390
F
  0
LAYER
  5
201
100
AcDbSymbolTableRecord
100
AcDbLayerTableRecord
  2
2__DEF_ASM_CSYS
 70
0
 62
7
  6
CONTINUOUS
370
-3
390
F
  0
LAYER
  5
202
100
AcDbSymbolTableRecord
100
AcDbLayerTableRecord
  2
2__DEF_CSYS
 70
0
 62
7
  6
CONTINUOUS
370
-3
390
F
  0
LAYER
  5
203
100
AcDbSymbolTableRecord
100
AcDbLayerTableRecord
  2
7_ALL_FEATURES
 70
0
 62
7
  6
CONTINUOUS
370
-3
390
F
  0
LAYER
  5
204
100
AcDbSymbolTableRecord
100
AcDbLayerTableRecord
  2
ALL_AXES
 70
0
 62
7
  6
CONTINUOUS
370
-3
390
F
  0
LAYER
  5
205
100
AcDbSymbolTableRecord
100
AcDbLayerTableRecord
  2
ALL_CURVES
 70
0
 62
7
  6
CONTINUOUS
370
-3
390
F
  0
LAYER
  5
206
100
AcDbSymbolTableRecord
100
AcDbLayerTableRecord
  2
ALL_FEATURES
 70
0
 62
7
  6
CONTINUOUS
370
-3
390
F
  0
LAYER
  5
207
100
AcDbSymbolTableRecord
100
AcDbLayerTableRecord
  2
ALL_PLANES
 70
0
 62
7
  6
CONTINUOUS
370
-3
390
F
  0
LAYER
  5
208
100
AcDbSymbolTableRecord
100
AcDbLayerTableRecord
  2
ALL_POINTS
 70
0
 62
7
  6
CONTINUOUS
370
-3
390
F
  0
LAYER
  5
209
100
AcDbSymbolTableRecord
100
AcDbLayerTableRecord
  2
CAVO
 70
0
 62
7
  6
CONTINUOUS
370
-3
390
F
  0
LAYER
  5
20A
100
AcDbSymbolTableRecord
100
AcDbLayerTableRecord
  2
FILETTI
 70
0
 62
7
  6
CONTINUOUS
370
-3
390
F
  0
LAYER
  5
20B
100
AcDbSymbolTableRecord
100
AcDbLayerTableRecord
  2
INTFCLR_285800
 70
0
 62
7
  6
CONTINUOUS
370
-3
390
F
  0
ENDTAB
  0
TABLE
  2
STYLE
  5
3
100
AcDbSymbolTable
 70
1
  0
STYLE
  5
11
100
AcDbSymbolTableRecord
100
AcDbTextStyleTableRecord
  2
STANDARD
 70
0
 40
0.0
 41
1.0
 50
0.0
 71
0
 42
0.2
  3
trium.ttf
  4

1001
ACAD
1000
CG Triumvirate
1071
34
  0
STYLE
  5
20C
100
AcDbSymbolTableRecord
100
AcDbTextStyleTableRecord
  2
TEXTSTYLE_1
 70
0
 40
0.0
 41
0.8
 50
0.0
 71
0
 42
0.2
  3
gdt
  4

  0
ENDTAB
  0
TABLE
  2
VIEW
  5
6
100
AcDbSymbolTable
 70
0
  0
ENDTAB
  0
TABLE
  2
UCS
  5
7
100
AcDbSymbolTable
 70
0
  0
ENDTAB
  0
TABLE
  2
APPID
  5
9
100
AcDbSymbolTable
 70
1
  0
APPID
  5
20D
100
AcDbSymbolTableRecord
100
AcDbRegAppTableRecord
  2
ACAD
 70
0
  0
ENDTAB
  0
TABLE
  2
BLOCK_RECORD
  5
1
100
AcDbSymbolTable
 70
0
  0
BLOCK_RECORD
  5
20E
100
AcDbSymbolTableRecord
100
AcDbBlockTableRecord
  2
*Model_Space
  0
BLOCK_RECORD
  5
20F
100
AcDbSymbolTableRecord
100
AcDbBlockTableRecord
  2
*Paper_Space
  0
BLOCK_RECORD
  5
210
100
AcDbSymbolTableRecord
100
AcDbBlockTableRecord
  2
_FILLED
  0
ENDTAB
  0
TABLE
  2
DIMSTYLE
  5
A
100
AcDbSymbolTable
 70
1
100
AcDbDimStyleTable
 71
0
  0
DIMSTYLE
105
211
100
AcDbSymbolTableRecord
100
AcDbDimStyleTableRecord
  2
STANDARD
 70
0
  3

  4

 40
1.0
 41
4.0
 42
1.0
 43
0.38
 44
1.0
 45
0.0
 46
0.0
 47
0.001
 48
0.001
140
3.0
141
0.09
142
0.0
143
25.4
144
1.0
145
0.0
146
1.0
147
0.625
 71
1
 72
0
 73
0
 74
0
 75
0
 76
0
 77
1
 78
8
 79
2
170
0
171
2
172
0
173
0
174
0
175
0
176
0
177
0
178
0
270
2
179
3
271
3
272
3
273
2
274
2
275
0
280
0
281
0
282
0
283
1
284
8
285
0
286
0
287
3
288
0
340
11
278
46
341
210
342
210
343
210
344
210
  0
ENDTAB
  0
ENDSEC
  0
SECTION
  2
BLOCKS
  0
BLOCK
  5
20
100
AcDbEntity
  8
0
100
AcDbBlockBegin
  2
*Model_Space
 70
0
 10
0.0
 20
0.0
 30
0.0
  3
*Model_Space
  1

  0
ENDBLK
  5
21
100
AcDbEntity
  8
0
100
AcDbBlockEnd
  0
BLOCK
  5
1C
100
AcDbEntity
  8
0
100
AcDbBlockBegin
  2
*Paper_Space
 70
0
 10
0.0
 20
0.0
 30
0.0
  3
*Paper_Space
  1

  0
ENDBLK
  5
1D
100
AcDbEntity
  8
0
100
AcDbBlockEnd
  0
BLOCK
  5
212
100
AcDbEntity
  8
0
100
AcDbBlockBegin
  2
_FILLED
 70
64
 10
0.0
 20
0.0
 30
0.0
  3
_FILLED
  1

  0
SOLID
  5
213
100
AcDbEntity
  8
0
  6
BYBLOCK
 62
0
100
AcDbTrace
 10
0.0
 20
0.0
 30
0.0
 11
-1.0
 21
0.1875
 31
0.0
 12
-1.0
 22
-0.1875
 32
0.0
 13
-1.0
 23
-0.1875
 33
0.0
  0
ENDBLK
  5
214
100
AcDbEntity
  8
0
  6
BYBLOCK
 62
0
100
AcDbBlockEnd
  0
ENDSEC
  0
SECTION
  2
ENTITIES
  0
LINE
  5
215
100
AcDbEntity
  8
0
100
AcDbLine
 62
7
  6
CONTINUOUS
 10
0.0
 20
0.0
 30
0.0
 11
297.0
 21
0.0
 31
0.0
  0
LINE
  5
216
100
AcDbEntity
  8
0
100
AcDbLine
 62
7
  6
CONTINUOUS
 10
0.0
 20
0.0
 30
0.0
 11
0.0
 21
420.0
 31
0.0
  0
LINE
  5
217
100
AcDbEntity
  8
0
100
AcDbLine
 62
7
  6
CONTINUOUS
 10
297.0
 20
0.0
 30
0.0
 11
297.0
 21
420.0
 31
0.0
  0
LINE
  5
218
100
AcDbEntity
  8
0
100
AcDbLine
 62
7
  6
CONTINUOUS
 10
0.0
 20
420.0
 30
0.0
 11
297.0
 21
420.0
 31
0.0
  0
LINE
  5
219
100
AcDbEntity
  8
0
100
AcDbLine
 62
7
  6
CONTINUOUS
 10
210.1495864155
 20
96.0368653715
 30
0.0
 11
222.6495864081
 21
96.0368653715
 31
0.0
  0
LINE
  5
21A
100
AcDbEntity
  8
0
100
AcDbLine
 62
9
  6
CONTINUOUS
 10
213.6507687775
 20
330.5568610252
 30
0.0
 11
214.8245451162
 21
331.3803923513
 31
0.0
  0
LINE
  5
21B
100
AcDbEntity
  8
0
100
AcDbLine
 62
7
  6
CONTINUOUS
 10
212.3798228872
 20
332.5545221836
 30
0.0
 11
212.4794591641
 21
332.650942002
 31
0.0
  0
LINE
  5
21C
100
AcDbEntity
  8
0
100
AcDbLine
 62
7
  6
CONTINUOUS
 10
212.5392387002
 20
332.650942002
 30
0.0
 11
212.4392956087
 21
332.5545221836
 31
0.0
  0
LINE
  5
21D
100
AcDbEntity
  8
0
100
AcDbLine
 62
9
  6
CONTINUOUS
 10
213.0709279172
 20
332.3502995922
 30
0.0
 11
213.4933472934
 21
332.7541423576
 31
0.0
  0
LWPOLYLINE
  5
21E
100
AcDbEntity
  8
0
100
AcDbPolyline
 62
7
  6
CONTINUOUS
 90
8
 70
0
 10
213.3949861847
 20
332.3506468399
 10
213.388874154
 20
332.3443954664
 10
213.3751313187
 20
332.327155208
 10
213.3637248734
 20
332.307476992
 10
213.3555659713
 20
332.2867252213
 10
213.3507256233
 20
332.2658760569
 10
213.3489152758
 20
332.2450470714
 10
213.3488946686
 20
332.2422599589
  0
LINE
  5
21F
100
AcDbEntity
  8
0
100
AcDbLine
 62
7
  6
CONTINUOUS
 10
210.7745864118
 20
328.6868615029
 30
0.0
 11
210.5245864118
 21
328.4368615029
 31
0.0
  0
LINE
  5
220
100
AcDbEntity
  8
0
100
AcDbLine
 62
7
  6
CONTINUOUS
 10
213.8081902617
 20
332.7541423576
 30
0.0
 11
213.3946955555
 21
332.3502995922
 31
0.0
  0
LINE
  5
221
100
AcDbEntity
  8
0
100
AcDbLine
 62
7
  6
CONTINUOUS
 10
213.4296414803
 20
332.7541423576
 30
0.0
 11
213.0123269671
 21
332.3502995922
 31
0.0
  0
LINE
  5
222
100
AcDbEntity
  8
0
100
AcDbLine
 62
7
  6
CONTINUOUS
 10
214.4490481769
 20
332.5545221836
 30
0.0
 11
214.5486844537
 21
332.650942002
 31
0.0
  0
LINE
  5
223
100
AcDbEntity
  8
0
100
AcDbLine
 62
9
  6
CONTINUOUS
 10
213.4532965056
 20
332.3502995922
 30
0.0
 11
213.8718960748
 21
332.7541423576
 31
0.0
  0
LINE
  5
224
100
AcDbEntity
  8
0
100
AcDbLine
 62
9
  6
CONTINUOUS
 10
213.8761401242
 20
332.5531867046
 30
0.0
 11
213.5540025938
 21
332.2424054217
 31
0.0
  0
LINE
  5
225
100
AcDbEntity
  8
0
100
AcDbLine
 62
7
  6
CONTINUOUS
 10
214.6084639899
 20
332.650942002
 30
0.0
 11
214.5085208984
 21
332.5545221836
 31
0.0
  0
LINE
  5
226
100
AcDbEntity
  8
0
100
AcDbLine
 62
9
  6
CONTINUOUS
 10
213.4986997807
 20
332.5156596707
 30
0.0
 11
213.2320198656
 21
332.2607074585
 31
0.0
  0
LINE
  5
227
100
AcDbEntity
  8
0
100
AcDbLine
 62
9
  6
CONTINUOUS
 10
217.3394745249
 20
328.7256582544
 30
0.0
 11
220.0664568755
 21
331.1246622069
 31
0.0
  0
LINE
  5
228
100
AcDbEntity
  8
0
100
AcDbLine
 62
9
  6
CONTINUOUS
 10
213.3949867182
 20
332.3506473862
 30
0.0
 11
213.3946955555
 21
332.3502995922
 31
0.0
  0
LINE
  5
229
100
AcDbEntity
  8
0
100
AcDbLine
 62
7
  6
CONTINUOUS
 10
220.2648018245
 20
331.2188109499
 30
0.0
 11
220.2576937489
 21
331.2104492374
 31
0.0
  0
LINE
  5
22A
100
AcDbEntity
  8
0
100
AcDbLine
 62
7
  6
CONTINUOUS
 10
210.7745864118
 20
312.4368615029
 30
0.0
 11
210.5245864118
 21
312.1868615029
 31
0.0
  0
LINE
  5
22B
100
AcDbEntity
  8
ALL_FEATURES
100
AcDbLine
 62
7
  6
CONTINUOUS
 10
216.5714441625
 20
298.1198742047
 30
0.0
 11
216.1966053942
 21
297.9033678538
 31
0.0
  0
LINE
  5
22C
100
AcDbEntity
  8
ALL_FEATURES
100
AcDbLine
 62
7
  6
CONTINUOUS
 10
216.56044881
 20
297.2601997013
 30
0.0
 11
216.9242922258
 21
297.4703551519
 31
0.0
  0
LINE
  5
22D
100
AcDbEntity
  8
ALL_FEATURES
100
AcDbLine
 62
7
  6
CONTINUOUS
 10
216.5714441625
 20
297.253848801
 30
0.0
 11
216.9462829308
 21
297.4703551519
 31
0.0
  0
LINE
  5
22E
100
AcDbEntity
  8
0
100
AcDbLine
 62
7
  6
CONTINUOUS
 10
220.2648019619
 20
331.2188111187
 30
0.0
 11
218.7579860307
 21
329.3670784883
 31
0.0
  0
LINE
  5
22F
100
AcDbEntity
  8
0
100
AcDbLine
 62
7
  6
CONTINUOUS
 10
222.0245864118
 20
312.9368615029
 30
0.0
 11
222.2745864118
 21
313.1868615029
 31
0.0
  0
LINE
  5
230
100
AcDbEntity
  8
0
100
AcDbLine
 62
7
  6
CONTINUOUS
 10
210.7745864118
 20
296.1868615029
 30
0.0
 11
210.5245864118
 21
295.9368615029
 31
0.0
  0
LINE
  5
231
100
AcDbEntity
  8
0
100
AcDbLine
 62
7
  6
CONTINUOUS
 10
215.3811524932
 20
331.1246622069
 30
0.0
 11
215.3081303062
 21
330.9619425114
 31
0.0
  0
LINE
  5
232
100
AcDbEntity
  8
0
100
AcDbLine
 62
7
  6
CONTINUOUS
 10
215.3501268432
 20
330.9619425114
 30
0.0
 11
215.4245684529
 21
331.1246622069
 31
0.0
  0
LINE
  5
233
100
AcDbEntity
  8
0
100
AcDbLine
 62
7
  6
CONTINUOUS
 10
216.0208037839
 20
331.0537277412
 30
0.0
 11
215.9948524664
 21
331.0010228817
 31
0.0
  0
LINE
  5
234
100
AcDbEntity
  8
0
100
AcDbLine
 62
7
  6
CONTINUOUS
 10
222.0245864118
 20
296.6868615029
 30
0.0
 11
222.2745864118
 21
296.9368615029
 31
0.0
  0
LINE
  5
235
100
AcDbEntity
  8
0
100
AcDbLine
 62
7
  6
CONTINUOUS
 10
222.0245864118
 20
295.1868615029
 30
0.0
 11
222.2745864118
 21
295.4368615029
 31
0.0
  0
LINE
  5
236
100
AcDbEntity
  8
0
100
AcDbLine
 62
7
  6
CONTINUOUS
 10
219.0393096954
 20
331.0010228817
 30
0.0
 11
219.0615816071
 21
331.0537277412
 31
0.0
  0
LINE
  5
237
100
AcDbEntity
  8
0
100
AcDbLine
 62
7
  6
CONTINUOUS
 10
219.7227196628
 20
331.1246622069
 30
0.0
 11
219.6482780531
 21
330.9619425114
 31
0.0
  0
LINE
  5
238
100
AcDbEntity
  8
0
100
AcDbLine
 62
7
  6
CONTINUOUS
 10
219.6902745901
 20
330.9619425114
 30
0.0
 11
219.7661356226
 21
331.1246622069
 31
0.0
  0
LINE
  5
239
100
AcDbEntity
  8
0
100
AcDbLine
 62
7
  6
CONTINUOUS
 10
212.5540279455
 20
334.7413675784
 30
0.0
 11
212.4768611214
 21
334.4413675784
 31
0.0
  0
LINE
  5
23A
100
AcDbEntity
  8
0
100
AcDbLine
 62
9
  6
CONTINUOUS
 10
214.8246764337
 20
334.4413675786
 30
0.0
 11
214.8974451169
 21
334.7413675786
 31
0.0
  0
LINE
  5
23B
100
AcDbEntity
  8
0
100
AcDbLine
 62
9
  6
CONTINUOUS
 10
215.0471707483
 20
334.7413675786
 30
0.0
 11
214.9744020651
 21
334.4413675786
 31
0.0
  0
LINE
  5
23C
100
AcDbEntity
  8
0
100
AcDbLine
 62
7
  6
CONTINUOUS
 10
214.5285160043
 20
334.7413675784
 30
0.0
 11
214.4536250146
 21
334.4413675784
 31
0.0
  0
LINE
  5
23D
100
AcDbEntity
  8
0
100
AcDbLine
 62
7
  6
CONTINUOUS
 10
214.5804805195
 20
334.4413675785
 30
0.0
 11
214.6555250372
 21
334.7413675785
 31
0.0
  0
LINE
  5
23E
100
AcDbEntity
  8
0
100
AcDbLine
 62
7
  6
CONTINUOUS
 10
215.9947333271
 20
331.0002871596
 30
0.0
 11
215.9948524664
 21
331.0010228817
 31
0.0
  0
LINE
  5
23F
100
AcDbEntity
  8
0
100
AcDbLine
 62
9
  6
CONTINUOUS
 10
216.1392752904
 20
331.0735534664
 30
0.0
 11
216.1331082517
 21
330.9852625723
 31
0.0
  0
LINE
  5
240
100
AcDbEntity
  8
0
100
AcDbLine
 62
7
  6
CONTINUOUS
 10
219.0616598829
 20
331.0546658883
 30
0.0
 11
219.0615816071
 21
331.0537277412
 31
0.0
  0
LINE
  5
241
100
AcDbEntity
  8
0
100
AcDbLine
 62
7
  6
CONTINUOUS
 10
215.3839635386
 20
331.2743550712
 30
0.0
 11
215.3647677466
 21
333.4749210945
 31
0.0
  0
LINE
  5
242
100
AcDbEntity
  8
0
100
AcDbLine
 62
7
  6
CONTINUOUS
 10
214.4540962039
 20
332.5999210947
 30
0.0
 11
214.4536250146
 21
334.4413675784
 31
0.0
  0
LINE
  5
243
100
AcDbEntity
  8
0
100
AcDbLine
 62
7
  6
CONTINUOUS
 10
210.1495864118
 20
96.0368653715
 30
0.0
 11
210.1495864118
 21
246.0368653715
 31
0.0
  0
LINE
  5
244
100
AcDbEntity
  8
0
100
AcDbLine
 62
7
  6
CONTINUOUS
 10
210.5245864118
 20
295.9368615029
 30
0.0
 11
210.5245864118
 21
295.4368615029
 31
0.0
  0
LINE
  5
245
100
AcDbEntity
  8
0
100
AcDbLine
 62
7
  6
CONTINUOUS
 10
210.5245864118
 20
296.9368615029
 30
0.0
 11
210.5245864118
 21
312.1868615029
 31
0.0
  0
LINE
  5
246
100
AcDbEntity
  8
0
100
AcDbLine
 62
7
  6
CONTINUOUS
 10
210.5245864118
 20
313.1868615029
 30
0.0
 11
210.5245864118
 21
328.4368615029
 31
0.0
  0
LINE
  5
247
100
AcDbEntity
  8
0
100
AcDbLine
 62
7
  6
CONTINUOUS
 10
210.7745864118
 20
296.1868615029
 30
0.0
 11
210.7745864118
 21
296.6868615029
 31
0.0
  0
LINE
  5
248
100
AcDbEntity
  8
0
100
AcDbLine
 62
7
  6
CONTINUOUS
 10
210.7745864118
 20
312.4368615029
 30
0.0
 11
210.7745864118
 21
312.9368615029
 31
0.0
  0
LINE
  5
249
100
AcDbEntity
  8
0
100
AcDbLine
 62
7
  6
CONTINUOUS
 10
212.4769924389
 20
331.3803923513
 30
0.0
 11
212.4769924389
 21
331.9122946355
 31
0.0
  0
LINE
  5
24A
100
AcDbEntity
  8
0
100
AcDbLine
 62
7
  6
CONTINUOUS
 10
212.4769924389
 20
332.650942002
 30
0.0
 11
212.4769924389
 21
334.4413675784
 31
0.0
  0
LINE
  5
24B
100
AcDbEntity
  8
0
100
AcDbLine
 62
7
  6
CONTINUOUS
 10
212.5736706656
 20
331.5805333345
 30
0.0
 11
212.5736706656
 21
331.8591930265
 31
0.0
  0
LINE
  5
24C
100
AcDbEntity
  8
0
100
AcDbLine
 62
7
  6
CONTINUOUS
 10
212.5736706656
 20
332.8101603275
 30
0.0
 11
212.5736706656
 21
333.7848485215
 31
0.0
  0
LINE
  5
24D
100
AcDbEntity
  8
0
100
AcDbLine
 62
7
  6
CONTINUOUS
 10
212.5861021692
 20
332.9026950666
 30
0.0
 11
212.5861021692
 21
333.9348485215
 31
0.0
  0
LINE
  5
24E
100
AcDbEntity
  8
0
100
AcDbLine
 62
7
  6
CONTINUOUS
 10
212.6462100962
 20
333.9348485216
 30
0.0
 11
212.6462100962
 21
332.9026950667
 31
0.0
  0
LINE
  5
24F
100
AcDbEntity
  8
0
100
AcDbLine
 62
7
  6
CONTINUOUS
 10
212.6586415998
 20
333.7848485216
 30
0.0
 11
212.6586415998
 21
331.4305333345
 31
0.0
  0
LINE
  5
250
100
AcDbEntity
  8
0
100
AcDbLine
 62
7
  6
CONTINUOUS
 10
212.9252296038
 20
333.5263675784
 30
0.0
 11
212.9252296038
 21
333.9763675784
 31
0.0
  0
LINE
  5
251
100
AcDbEntity
  8
0
100
AcDbLine
 62
7
  6
CONTINUOUS
 10
212.9574826377
 20
333.9763675784
 30
0.0
 11
212.9574826377
 21
333.5263675784
 31
0.0
  0
LINE
  5
252
100
AcDbEntity
  8
0
100
AcDbLine
 62
7
  6
CONTINUOUS
 10
213.4136690549
 20
332.7541423576
 30
0.0
 11
213.4136690549
 21
333.6098751749
 31
0.0
  0
LINE
  5
253
100
AcDbEntity
  8
0
100
AcDbLine
 62
7
  6
CONTINUOUS
 10
213.4253974308
 20
332.7541423576
 30
0.0
 11
213.4253974308
 21
333.6098751749
 31
0.0
  0
LINE
  5
254
100
AcDbEntity
  8
0
100
AcDbLine
 62
7
  6
CONTINUOUS
 10
213.4986997807
 20
332.4518761138
 30
0.0
 11
213.4986997807
 21
333.6098751749
 31
0.0
  0
LINE
  5
255
100
AcDbEntity
  8
0
100
AcDbLine
 62
7
  6
CONTINUOUS
 10
213.5104281567
 20
331.9989129999
 30
0.0
 11
213.5104281567
 21
332.0667486108
 31
0.0
  0
LINE
  5
256
100
AcDbEntity
  8
0
100
AcDbLine
 62
7
  6
CONTINUOUS
 10
213.5104281567
 20
332.4633307218
 30
0.0
 11
213.5104281567
 21
333.6098751749
 31
0.0
  0
LINE
  5
257
100
AcDbEntity
  8
0
100
AcDbLine
 62
7
  6
CONTINUOUS
 10
213.6495864118
 20
330.4898991922
 30
0.0
 11
213.6495864118
 21
328.6868615029
 31
0.0
  0
LINE
  5
258
100
AcDbEntity
  8
0
100
AcDbLine
 62
7
  6
CONTINUOUS
 10
213.698415305
 20
333.9763675785
 30
0.0
 11
213.698415305
 21
333.5263675785
 31
0.0
  0
LINE
  5
259
100
AcDbEntity
  8
0
100
AcDbLine
 62
7
  6
CONTINUOUS
 10
213.7350664799
 20
333.5263675785
 30
0.0
 11
213.7350664799
 21
333.9763675785
 31
0.0
  0
LINE
  5
25A
100
AcDbEntity
  8
0
100
AcDbLine
 62
7
  6
CONTINUOUS
 10
213.7911093984
 20
332.7541423576
 30
0.0
 11
213.7911093984
 21
333.6098751749
 31
0.0
  0
LINE
  5
25B
100
AcDbEntity
  8
0
100
AcDbLine
 62
7
  6
CONTINUOUS
 10
213.8028377743
 20
332.7541423576
 30
0.0
 11
213.8028377743
 21
333.6098751749
 31
0.0
  0
LINE
  5
25C
100
AcDbEntity
  8
0
100
AcDbLine
 62
7
  6
CONTINUOUS
 10
213.8761401242
 20
332.0742447983
 30
0.0
 11
213.8761401242
 21
333.6098751749
 31
0.0
  0
LINE
  5
25D
100
AcDbEntity
  8
0
100
AcDbLine
 62
7
  6
CONTINUOUS
 10
213.8878685002
 20
331.9989129999
 30
0.0
 11
213.8878685002
 21
333.6098751749
 31
0.0
  0
LINE
  5
25E
100
AcDbEntity
  8
0
100
AcDbLine
 62
7
  6
CONTINUOUS
 10
214.5186074349
 20
334.4499210947
 30
0.0
 11
214.5186074349
 21
334.5663675786
 31
0.0
  0
LINE
  5
25F
100
AcDbEntity
  8
0
100
AcDbLine
 62
7
  6
CONTINUOUS
 10
214.6428959553
 20
333.7848485216
 30
0.0
 11
214.6428959553
 21
332.8101551521
 31
0.0
  0
LINE
  5
260
100
AcDbEntity
  8
0
100
AcDbLine
 62
7
  6
CONTINUOUS
 10
214.6428959553
 20
331.8591930265
 30
0.0
 11
214.6428959553
 21
331.4305333345
 31
0.0
  0
LINE
  5
261
100
AcDbEntity
  8
0
100
AcDbLine
 62
7
  6
CONTINUOUS
 10
214.6553274589
 20
333.9348485216
 30
0.0
 11
214.6553274589
 21
332.9026950667
 31
0.0
  0
LINE
  5
262
100
AcDbEntity
  8
0
100
AcDbLine
 62
7
  6
CONTINUOUS
 10
214.7154353858
 20
332.9026950667
 30
0.0
 11
214.7154353858
 21
333.9348485215
 31
0.0
  0
LINE
  5
263
100
AcDbEntity
  8
0
100
AcDbLine
 62
7
  6
CONTINUOUS
 10
214.7278668895
 20
331.5805333345
 30
0.0
 11
214.7278668895
 21
333.7848485215
 31
0.0
  0
LINE
  5
264
100
AcDbEntity
  8
0
100
AcDbLine
 62
9
  6
CONTINUOUS
 10
214.8245451162
 20
334.4413675786
 30
0.0
 11
214.8245451162
 21
331.3803923513
 31
0.0
  0
LINE
  5
265
100
AcDbEntity
  8
0
100
AcDbLine
 62
9
  6
CONTINUOUS
 10
214.9788787645
 20
331.380378392
 30
0.0
 11
214.9788787645
 21
334.4413675786
 31
0.0
  0
LINE
  5
266
100
AcDbEntity
  8
0
100
AcDbLine
 62
7
  6
CONTINUOUS
 10
215.3501268432
 20
331.0555259002
 30
0.0
 11
215.3501268432
 21
330.9619425114
 31
0.0
  0
LINE
  5
267
100
AcDbEntity
  8
0
100
AcDbLine
 62
7
  6
CONTINUOUS
 10
215.410359699
 20
332.3749210947
 30
0.0
 11
215.410359699
 21
332.7749210947
 31
0.0
  0
LINE
  5
268
100
AcDbEntity
  8
0
100
AcDbLine
 62
7
  6
CONTINUOUS
 10
215.4286852865
 20
331.2743550712
 30
0.0
 11
215.4286852865
 21
333.4249210947
 31
0.0
  0
LINE
  5
269
100
AcDbEntity
  8
0
100
AcDbLine
 62
6
  6
CONTINUOUS
 10
215.7245864118
 20
246.0368653715
 30
0.0
 11
215.7245864118
 21
295.1868615029
 31
0.0
  0
LINE
  5
26A
100
AcDbEntity
  8
ALL_FEATURES
100
AcDbLine
 62
7
  6
CONTINUOUS
 10
216.1966053942
 20
297.9033678538
 30
0.0
 11
216.1966053942
 21
297.4703551519
 31
0.0
  0
LINE
  5
26B
100
AcDbEntity
  8
ALL_FEATURES
100
AcDbLine
 62
7
  6
CONTINUOUS
 10
216.9242922258
 20
297.4703551519
 30
0.0
 11
216.9242922258
 21
297.9033678538
 31
0.0
  0
LINE
  5
26C
100
AcDbEntity
  8
ALL_FEATURES
100
AcDbLine
 62
7
  6
CONTINUOUS
 10
216.9462829308
 20
297.4703551519
 30
0.0
 11
216.9462829308
 21
297.9033678538
 31
0.0
  0
LINE
  5
26D
100
AcDbEntity
  8
0
100
AcDbLine
 62
6
  6
CONTINUOUS
 10
217.0745864118
 20
246.0368653715
 30
0.0
 11
217.0745864118
 21
295.1868615029
 31
0.0
  0
LINE
  5
26E
100
AcDbEntity
  8
0
100
AcDbLine
 62
7
  6
CONTINUOUS
 10
214.5800314194
 20
332.6862473057
 30
0.0
 11
214.5804805195
 21
334.4413675785
 31
0.0
  0
LINE
  5
26F
100
AcDbEntity
  8
0
100
AcDbLine
 62
7
  6
CONTINUOUS
 10
215.4050001002
 20
331.4305333345
 30
0.0
 11
215.4053621386
 21
332.137917411
 31
0.0
  0
LINE
  5
270
100
AcDbEntity
  8
0
100
AcDbLine
 62
7
  6
CONTINUOUS
 10
215.4058065681
 20
333.0062849948
 30
0.0
 11
215.4060208256
 21
333.4249210947
 31
0.0
  0
LINE
  5
271
100
AcDbEntity
  8
0
100
AcDbLine
 62
7
  6
CONTINUOUS
 10
213.6495864541
 20
330.4893238212
 30
0.0
 11
213.6507687775
 21
330.5568610252
 31
0.0
  0
LINE
  5
272
100
AcDbEntity
  8
0
100
AcDbLine
 62
7
  6
CONTINUOUS
 10
214.0694679509
 20
334.9181622244
 30
0.0
 11
214.0642841657
 21
334.7413675784
 31
0.0
  0
LINE
  5
273
100
AcDbEntity
  8
0
100
AcDbLine
 62
7
  6
CONTINUOUS
 10
216.0859630318
 20
334.7413675786
 30
0.0
 11
216.0807792466
 21
334.9181622245
 31
0.0
  0
LINE
  5
274
100
AcDbEntity
  8
0
100
AcDbLine
 62
7
  6
CONTINUOUS
 10
218.7297048727
 20
334.9181622245
 30
0.0
 11
218.7348886579
 21
334.7413675786
 31
0.0
  0
LINE
  5
275
100
AcDbEntity
  8
0
100
AcDbLine
 62
9
  6
CONTINUOUS
 10
218.8866337404
 20
330.9852625723
 30
0.0
 11
218.8866372445
 21
331.0785041535
 31
0.0
  0
LINE
  5
276
100
AcDbEntity
  8
0
100
AcDbLine
 62
9
  6
CONTINUOUS
 10
219.0393117113
 20
331.0546667282
 30
0.0
 11
219.0393096954
 21
331.0010228817
 31
0.0
  0
LINE
  5
277
100
AcDbEntity
  8
0
100
AcDbLine
 62
7
  6
CONTINUOUS
 10
219.1495864118
 20
329.8483178943
 30
0.0
 11
219.1495864118
 21
328.6868615029
 31
0.0
  0
LINE
  5
278
100
AcDbEntity
  8
0
100
AcDbLine
 62
7
  6
CONTINUOUS
 10
219.7268364964
 20
333.4249210947
 30
0.0
 11
219.7268364964
 21
331.2743550712
 31
0.0
  0
LINE
  5
279
100
AcDbEntity
  8
0
100
AcDbLine
 62
9
  6
CONTINUOUS
 10
220.1766430183
 20
334.4413675786
 30
0.0
 11
220.1766430183
 21
331.3803783994
 31
0.0
  0
LINE
  5
27A
100
AcDbEntity
  8
0
100
AcDbLine
 62
7
  6
CONTINUOUS
 10
222.0245864118
 20
296.1868615029
 30
0.0
 11
222.0245864118
 21
296.6868615029
 31
0.0
  0
LINE
  5
27B
100
AcDbEntity
  8
0
100
AcDbLine
 62
7
  6
CONTINUOUS
 10
222.0245864118
 20
312.4368615029
 30
0.0
 11
222.0245864118
 21
312.9368615029
 31
0.0
  0
LINE
  5
27C
100
AcDbEntity
  8
0
100
AcDbLine
 62
7
  6
CONTINUOUS
 10
222.2745864118
 20
295.9368615029
 30
0.0
 11
222.2745864118
 21
295.4368615029
 31
0.0
  0
LINE
  5
27D
100
AcDbEntity
  8
0
100
AcDbLine
 62
7
  6
CONTINUOUS
 10
222.2745864118
 20
296.9368615029
 30
0.0
 11
222.2745864118
 21
312.1868615029
 31
0.0
  0
LINE
  5
27E
100
AcDbEntity
  8
0
100
AcDbLine
 62
7
  6
CONTINUOUS
 10
222.2745864118
 20
313.1868615029
 30
0.0
 11
222.2745864118
 21
328.4368615029
 31
0.0
  0
LINE
  5
27F
100
AcDbEntity
  8
0
100
AcDbLine
 62
7
  6
CONTINUOUS
 10
222.6495864118
 20
96.0368653715
 30
0.0
 11
222.6495864118
 21
246.0368653715
 31
0.0
  0
LINE
  5
280
100
AcDbEntity
  8
0
100
AcDbLine
 62
7
  6
CONTINUOUS
 10
220.3221803847
 20
331.3803923513
 30
0.0
 11
220.3221808515
 21
334.4422813433
 31
0.0
  0
LINE
  5
281
100
AcDbEntity
  8
0
100
AcDbLine
 62
7
  6
CONTINUOUS
 10
219.6902745901
 20
330.9619425114
 30
0.0
 11
219.6910909288
 21
331.0555259002
 31
0.0
  0
LINE
  5
282
100
AcDbEntity
  8
0
100
AcDbLine
 62
7
  6
CONTINUOUS
 10
219.7637536075
 20
332.9749210945
 30
0.0
 11
219.7572112707
 21
332.2249210945
 31
0.0
  0
LINE
  5
283
100
AcDbEntity
  8
0
100
AcDbLine
 62
7
  6
CONTINUOUS
 10
219.7907540362
 20
333.4749210945
 30
0.0
 11
219.7715582443
 21
331.2743550712
 31
0.0
  0
LINE
  5
284
100
AcDbEntity
  8
0
100
AcDbLine
 62
7
  6
CONTINUOUS
 10
219.7681151653
 20
333.4749210945
 30
0.0
 11
219.763497708
 21
332.9749210945
 31
0.0
  0
LINE
  5
285
100
AcDbEntity
  8
0
100
AcDbLine
 62
7
  6
CONTINUOUS
 10
219.7565715221
 20
332.2249210945
 30
0.0
 11
219.749235419
 21
331.4305333345
 31
0.0
  0
LINE
  5
286
100
AcDbEntity
  8
0
100
AcDbLine
 62
9
  6
CONTINUOUS
 10
215.0808312403
 20
331.1246622069
 30
0.0
 11
215.6128031411
 21
328.7256582544
 31
0.0
  0
LINE
  5
287
100
AcDbEntity
  8
0
100
AcDbLine
 62
7
  6
CONTINUOUS
 10
210.1495864155
 20
246.0368653715
 30
0.0
 11
222.6495864081
 21
246.0368653715
 31
0.0
  0
LINE
  5
288
100
AcDbEntity
  8
0
100
AcDbLine
 62
9
  6
CONTINUOUS
 10
220.1811197177
 20
334.4413675786
 30
0.0
 11
220.1039528936
 21
334.7413675786
 31
0.0
  0
LINE
  5
289
100
AcDbEntity
  8
0
100
AcDbLine
 62
7
  6
CONTINUOUS
 10
220.3221803738
 20
334.4421352471
 30
0.0
 11
220.2452110115
 21
334.7413675786
 31
0.0
  0
LINE
  5
28A
100
AcDbEntity
  8
0
100
AcDbLine
 62
7
  6
CONTINUOUS
 10
210.7745864118
 20
295.1868615029
 30
0.0
 11
210.5245864118
 21
295.4368615029
 31
0.0
  0
LINE
  5
28B
100
AcDbEntity
  8
0
100
AcDbLine
 62
7
  6
CONTINUOUS
 10
210.7745864118
 20
296.6868615029
 30
0.0
 11
210.5245864118
 21
296.9368615029
 31
0.0
  0
LINE
  5
28C
100
AcDbEntity
  8
0
100
AcDbLine
 62
7
  6
CONTINUOUS
 10
222.0245864118
 20
296.1868615029
 30
0.0
 11
222.2745864118
 21
295.9368615029
 31
0.0
  0
LINE
  5
28D
100
AcDbEntity
  8
ALL_FEATURES
100
AcDbLine
 62
7
  6
CONTINUOUS
 10
216.1966053942
 20
297.4703551519
 30
0.0
 11
216.5714441625
 21
297.253848801
 31
0.0
  0
LINE
  5
28E
100
AcDbEntity
  8
ALL_FEATURES
100
AcDbLine
 62
7
  6
CONTINUOUS
 10
216.9242922258
 20
297.9033678538
 30
0.0
 11
216.56044881
 21
298.1135233045
 31
0.0
  0
LINE
  5
28F
100
AcDbEntity
  8
ALL_FEATURES
100
AcDbLine
 62
7
  6
CONTINUOUS
 10
216.9462829308
 20
297.9033678538
 30
0.0
 11
216.5714441625
 21
298.1198742047
 31
0.0
  0
LINE
  5
290
100
AcDbEntity
  8
0
100
AcDbLine
 62
7
  6
CONTINUOUS
 10
210.7745864118
 20
312.9368615029
 30
0.0
 11
210.5245864118
 21
313.1868615029
 31
0.0
  0
LINE
  5
291
100
AcDbEntity
  8
0
100
AcDbLine
 62
7
  6
CONTINUOUS
 10
222.0245864118
 20
312.4368615029
 30
0.0
 11
222.2745864118
 21
312.1868615029
 31
0.0
  0
LINE
  5
292
100
AcDbEntity
  8
0
100
AcDbLine
 62
7
  6
CONTINUOUS
 10
212.5343709965
 20
331.218810953
 30
0.0
 11
212.5414753602
 21
331.210453423
 31
0.0
  0
LINE
  5
293
100
AcDbEntity
  8
0
100
AcDbLine
 62
7
  6
CONTINUOUS
 10
212.5343708879
 20
331.2188110865
 30
0.0
 11
213.6495864118
 21
329.8483178943
 31
0.0
  0
LINE
  5
294
100
AcDbEntity
  8
0
100
AcDbLine
 62
7
  6
CONTINUOUS
 10
222.0245864079
 20
295.1868615029
 30
0.0
 11
210.7745864157
 21
295.1868615029
 31
0.0
  0
LINE
  5
295
100
AcDbEntity
  8
0
100
AcDbLine
 62
7
  6
CONTINUOUS
 10
222.2745864118
 20
295.4368615029
 30
0.0
 11
210.5245864118
 21
295.4368615029
 31
0.0
  0
LINE
  5
296
100
AcDbEntity
  8
0
100
AcDbLine
 62
7
  6
CONTINUOUS
 10
210.5245864118
 20
295.9368615029
 30
0.0
 11
222.2745864118
 21
295.9368615029
 31
0.0
  0
LINE
  5
297
100
AcDbEntity
  8
0
100
AcDbLine
 62
7
  6
CONTINUOUS
 10
210.7745864157
 20
296.1868615029
 30
0.0
 11
222.0245071911
 21
296.1868615029
 31
0.0
  0
LINE
  5
298
100
AcDbEntity
  8
0
100
AcDbLine
 62
7
  6
CONTINUOUS
 10
210.7745864118
 20
296.6868615029
 30
0.0
 11
222.0245864118
 21
296.6868615029
 31
0.0
  0
LINE
  5
299
100
AcDbEntity
  8
0
100
AcDbLine
 62
7
  6
CONTINUOUS
 10
210.5245864118
 20
296.9368615029
 30
0.0
 11
222.2745864118
 21
296.9368615029
 31
0.0
  0
LINE
  5
29A
100
AcDbEntity
  8
ALL_FEATURES
100
AcDbLine
 62
7
  6
CONTINUOUS
 10
216.9462829308
 20
297.4703551519
 30
0.0
 11
216.9242922258
 21
297.4703551519
 31
0.0
  0
LINE
  5
29B
100
AcDbEntity
  8
ALL_FEATURES
100
AcDbLine
 62
7
  6
CONTINUOUS
 10
216.9462829308
 20
297.9033678538
 30
0.0
 11
216.9242922258
 21
297.9033678538
 31
0.0
  0
LINE
  5
29C
100
AcDbEntity
  8
0
100
AcDbLine
 62
7
  6
CONTINUOUS
 10
220.4193499363
 20
332.5545221836
 30
0.0
 11
220.3197136595
 21
332.650942002
 31
0.0
  0
LINE
  5
29D
100
AcDbEntity
  8
0
100
AcDbLine
 62
7
  6
CONTINUOUS
 10
222.0245864118
 20
328.6868615029
 30
0.0
 11
222.2745864118
 21
328.4368615029
 31
0.0
  0
LINE
  5
29E
100
AcDbEntity
  8
0
100
AcDbLine
 62
7
  6
CONTINUOUS
 10
210.5245864118
 20
312.1868615029
 30
0.0
 11
222.2745864118
 21
312.1868615029
 31
0.0
  0
LINE
  5
29F
100
AcDbEntity
  8
0
100
AcDbLine
 62
9
  6
CONTINUOUS
 10
212.4769924389
 20
331.3803923513
 30
0.0
 11
213.6507687775
 21
330.5568610252
 31
0.0
  0
LINE
  5
2A0
100
AcDbEntity
  8
0
100
AcDbLine
 62
7
  6
CONTINUOUS
 10
210.7745864118
 20
312.4368615029
 30
0.0
 11
222.0245864118
 21
312.4368615029
 31
0.0
  0
LINE
  5
2A1
100
AcDbEntity
  8
0
100
AcDbLine
 62
7
  6
CONTINUOUS
 10
210.7745864118
 20
312.9368615029
 30
0.0
 11
222.0245864118
 21
312.9368615029
 31
0.0
  0
LINE
  5
2A2
100
AcDbEntity
  8
0
100
AcDbLine
 62
7
  6
CONTINUOUS
 10
210.5245864118
 20
313.1868615029
 30
0.0
 11
222.2745864118
 21
313.1868615029
 31
0.0
  0
LINE
  5
2A3
100
AcDbEntity
  8
0
100
AcDbLine
 62
9
  6
CONTINUOUS
 10
213.5101271848
 20
331.9001317943
 30
0.0
 11
213.1054593715
 21
332.1094642617
 31
0.0
  0
LINE
  5
2A4
100
AcDbEntity
  8
0
100
AcDbLine
 62
9
  6
CONTINUOUS
 10
213.2320198656
 20
332.2607074585
 30
0.0
 11
213.3564879454
 21
332.1963207951
 31
0.0
  0
LINE
  5
2A5
100
AcDbEntity
  8
0
100
AcDbLine
 62
7
  6
CONTINUOUS
 10
212.5320160146
 20
331.9122946355
 30
0.0
 11
212.6586415998
 21
331.8461941805
 31
0.0
  0
LINE
  5
2A6
100
AcDbEntity
  8
0
100
AcDbLine
 62
9
  6
CONTINUOUS
 10
213.8875727495
 20
331.9008882286
 30
0.0
 11
213.4880132875
 21
332.1094642617
 31
0.0
  0
LINE
  5
2A7
100
AcDbEntity
  8
0
100
AcDbLine
 62
9
  6
CONTINUOUS
 10
213.5540025938
 20
332.2424054217
 30
0.0
 11
213.8761401242
 21
332.0742447983
 31
0.0
  0
LINE
  5
2A8
100
AcDbEntity
  8
0
100
AcDbLine
 62
7
  6
CONTINUOUS
 10
214.7278668895
 20
331.8461941805
 30
0.0
 11
214.6012413043
 21
331.9122946355
 31
0.0
  0
LINE
  5
2A9
100
AcDbEntity
  8
0
100
AcDbLine
 62
7
  6
CONTINUOUS
 10
212.6586415998
 20
331.8147003364
 30
0.0
 11
212.4722586513
 21
331.9122946355
 31
0.0
  0
LINE
  5
2AA
100
AcDbEntity
  8
0
100
AcDbLine
 62
7
  6
CONTINUOUS
 10
213.0470437489
 20
332.1094642617
 30
0.0
 11
213.5098880532
 21
331.8671085855
 31
0.0
  0
LINE
  5
2AB
100
AcDbEntity
  8
0
100
AcDbLine
 62
7
  6
CONTINUOUS
 10
214.541483941
 20
331.9122946355
 30
0.0
 11
214.7278668895
 21
331.8147003364
 31
0.0
  0
LINE
  5
2AC
100
AcDbEntity
  8
0
100
AcDbLine
 62
7
  6
CONTINUOUS
 10
213.4295976649
 20
332.1094642617
 30
0.0
 11
213.8873327205
 21
331.8675697688
 31
0.0
  0
LINE
  5
2AD
100
AcDbEntity
  8
0
100
AcDbLine
 62
7
  6
CONTINUOUS
 10
210.5245864118
 20
328.4368615029
 30
0.0
 11
222.2745864118
 21
328.4368615029
 31
0.0
  0
LINE
  5
2AE
100
AcDbEntity
  8
0
100
AcDbLine
 62
7
  6
CONTINUOUS
 10
210.7745865224
 20
328.6868615032
 30
0.0
 11
222.0245863011
 21
328.6868615032
 31
0.0
  0
LINE
  5
2AF
100
AcDbEntity
  8
0
100
AcDbLine
 62
7
  6
CONTINUOUS
 10
215.3081303062
 20
330.9619425114
 30
0.0
 11
215.3501268432
 21
330.9619425114
 31
0.0
  0
LINE
  5
2B0
100
AcDbEntity
  8
0
100
AcDbLine
 62
7
  6
CONTINUOUS
 10
219.6482780531
 20
330.9619425114
 30
0.0
 11
219.6902745901
 21
330.9619425114
 31
0.0
  0
LINE
  5
2B1
100
AcDbEntity
  8
0
100
AcDbLine
 62
7
  6
CONTINUOUS
 10
216.1331082517
 20
330.9852625723
 30
0.0
 11
218.8866337404
 21
330.9852625723
 31
0.0
  0
LINE
  5
2B2
100
AcDbEntity
  8
0
100
AcDbLine
 62
7
  6
CONTINUOUS
 10
218.5758957418
 20
331.0856517616
 30
0.0
 11
216.5356990877
 21
331.0856517616
 31
0.0
  0
LINE
  5
2B3
100
AcDbEntity
  8
0
100
AcDbLine
 62
9
  6
CONTINUOUS
 10
215.0808312403
 20
331.1246622069
 30
0.0
 11
215.3811524932
 21
331.1246622069
 31
0.0
  0
LINE
  5
2B4
100
AcDbEntity
  8
0
100
AcDbLine
 62
9
  6
CONTINUOUS
 10
215.4245684529
 20
331.1246622069
 30
0.0
 11
219.7227196628
 21
331.1246622069
 31
0.0
  0
LINE
  5
2B5
100
AcDbEntity
  8
0
100
AcDbLine
 62
9
  6
CONTINUOUS
 10
219.7661356226
 20
331.1246622069
 30
0.0
 11
220.0664568755
 21
331.1246622069
 31
0.0
  0
LINE
  5
2B6
100
AcDbEntity
  8
0
100
AcDbLine
 62
9
  6
CONTINUOUS
 10
220.0705629891
 20
331.2743550712
 30
0.0
 11
219.7715582443
 21
331.2743550712
 31
0.0
  0
LINE
  5
2B7
100
AcDbEntity
  8
0
100
AcDbLine
 62
9
  6
CONTINUOUS
 10
219.7268364964
 20
331.2743550712
 30
0.0
 11
215.4286852865
 21
331.2743550712
 31
0.0
  0
LINE
  5
2B8
100
AcDbEntity
  8
0
100
AcDbLine
 62
9
  6
CONTINUOUS
 10
215.3839635386
 20
331.2743550712
 30
0.0
 11
215.0849587751
 21
331.2743550712
 31
0.0
  0
LINE
  5
2B9
100
AcDbEntity
  8
0
100
AcDbLine
 62
9
  6
CONTINUOUS
 10
220.3221803847
 20
331.3803923513
 30
0.0
 11
220.1766430183
 21
331.3803923513
 31
0.0
  0
LINE
  5
2BA
100
AcDbEntity
  8
0
100
AcDbLine
 62
9
  6
CONTINUOUS
 10
214.9788787645
 20
331.3803923513
 30
0.0
 11
214.8245451162
 21
331.3803923513
 31
0.0
  0
LINE
  5
2BB
100
AcDbEntity
  8
0
100
AcDbLine
 62
7
  6
CONTINUOUS
 10
214.7234680785
 20
331.4305333345
 30
0.0
 11
214.6428959553
 21
331.4305333345
 31
0.0
  0
LINE
  5
2BC
100
AcDbEntity
  8
0
100
AcDbLine
 62
7
  6
CONTINUOUS
 10
212.6586415998
 20
331.4305333345
 30
0.0
 11
212.5780694766
 21
331.4305333345
 31
0.0
  0
LINE
  5
2BD
100
AcDbEntity
  8
0
100
AcDbLine
 62
7
  6
CONTINUOUS
 10
215.3826011775
 20
331.4305333345
 30
0.0
 11
215.4050001002
 21
331.4305333345
 31
0.0
  0
LINE
  5
2BE
100
AcDbEntity
  8
0
100
AcDbLine
 62
7
  6
CONTINUOUS
 10
219.7268364964
 20
331.4305333345
 30
0.0
 11
219.749235419
 21
331.4305333345
 31
0.0
  0
LINE
  5
2BF
100
AcDbEntity
  8
0
100
AcDbLine
 62
7
  6
CONTINUOUS
 10
213.8732102631
 20
331.4989891523
 30
0.0
 11
213.8057676355
 21
331.4989891523
 31
0.0
  0
LINE
  5
2C0
100
AcDbEntity
  8
0
100
AcDbLine
 62
7
  6
CONTINUOUS
 10
213.428327292
 20
331.4989891523
 30
0.0
 11
213.4957699196
 21
331.4989891523
 31
0.0
  0
LINE
  5
2C1
100
AcDbEntity
  8
0
100
AcDbLine
 62
9
  6
CONTINUOUS
 10
212.6586415998
 20
331.5805333345
 30
0.0
 11
212.5736706656
 21
331.5805333345
 31
0.0
  0
LINE
  5
2C2
100
AcDbEntity
  8
0
100
AcDbLine
 62
9
  6
CONTINUOUS
 10
212.4722586513
 20
331.9122946355
 30
0.0
 11
212.5320160146
 21
331.9122946355
 31
0.0
  0
LINE
  5
2C3
100
AcDbEntity
  8
0
100
AcDbLine
 62
9
  6
CONTINUOUS
 10
214.541483941
 20
331.9122946355
 30
0.0
 11
214.6012413043
 21
331.9122946355
 31
0.0
  0
LINE
  5
2C4
100
AcDbEntity
  8
0
100
AcDbLine
 62
9
  6
CONTINUOUS
 10
213.0470437489
 20
332.1094642617
 30
0.0
 11
213.1054593715
 21
332.1094642617
 31
0.0
  0
LINE
  5
2C5
100
AcDbEntity
  8
0
100
AcDbLine
 62
9
  6
CONTINUOUS
 10
213.4295976649
 20
332.1094642617
 30
0.0
 11
213.4880132875
 21
332.1094642617
 31
0.0
  0
LINE
  5
2C6
100
AcDbEntity
  8
0
100
AcDbLine
 62
7
  6
CONTINUOUS
 10
215.4088702343
 20
332.2249210945
 30
0.0
 11
215.3756716412
 21
332.2249210945
 31
0.0
  0
LINE
  5
2C7
100
AcDbEntity
  8
0
100
AcDbLine
 62
7
  6
CONTINUOUS
 10
219.7268364964
 20
332.2249210945
 30
0.0
 11
219.7572112707
 21
332.2249210945
 31
0.0
  0
LINE
  5
2C8
100
AcDbEntity
  8
0
100
AcDbLine
 62
9
  6
CONTINUOUS
 10
213.4532965056
 20
332.3502995922
 30
0.0
 11
213.3946955555
 21
332.3502995922
 31
0.0
  0
LINE
  5
2C9
100
AcDbEntity
  8
0
100
AcDbLine
 62
9
  6
CONTINUOUS
 10
213.0709279172
 20
332.3502995922
 30
0.0
 11
213.0123269671
 21
332.3502995922
 31
0.0
  0
LINE
  5
2CA
100
AcDbEntity
  8
0
100
AcDbLine
 62
9
  6
CONTINUOUS
 10
214.5085208984
 20
332.5545221836
 30
0.0
 11
214.4490481769
 21
332.5545221836
 31
0.0
  0
LINE
  5
2CB
100
AcDbEntity
  8
0
100
AcDbLine
 62
9
  6
CONTINUOUS
 10
212.4392956087
 20
332.5545221836
 30
0.0
 11
212.3798228872
 21
332.5545221836
 31
0.0
  0
LINE
  5
2CC
100
AcDbEntity
  8
0
100
AcDbLine
 62
7
  6
CONTINUOUS
 10
214.4959615453
 20
332.5999210947
 30
0.0
 11
214.4540962039
 21
332.5999210947
 31
0.0
  0
LINE
  5
2CD
100
AcDbEntity
  8
0
100
AcDbLine
 62
9
  6
CONTINUOUS
 10
212.4794591641
 20
332.650942002
 30
0.0
 11
212.5392387002
 21
332.650942002
 31
0.0
  0
LINE
  5
2CE
100
AcDbEntity
  8
0
100
AcDbLine
 62
9
  6
CONTINUOUS
 10
214.5486844537
 20
332.650942002
 30
0.0
 11
214.6084639899
 21
332.650942002
 31
0.0
  0
LINE
  5
2CF
100
AcDbEntity
  8
0
100
AcDbLine
 62
7
  6
CONTINUOUS
 10
213.8718960748
 20
332.7541423576
 30
0.0
 11
213.8081902617
 21
332.7541423576
 31
0.0
  0
LINE
  5
2D0
100
AcDbEntity
  8
0
100
AcDbLine
 62
7
  6
CONTINUOUS
 10
213.4296414803
 20
332.7541423576
 30
0.0
 11
213.4933472934
 21
332.7541423576
 31
0.0
  0
LINE
  5
2D1
100
AcDbEntity
  8
0
100
AcDbLine
 62
9
  6
CONTINUOUS
 10
214.7154353858
 20
332.9026950667
 30
0.0
 11
214.6553274589
 21
332.9026950667
 31
0.0
  0
LINE
  5
2D2
100
AcDbEntity
  8
0
100
AcDbLine
 62
9
  6
CONTINUOUS
 10
212.6462100962
 20
332.9026950667
 30
0.0
 11
212.5861021692
 21
332.9026950667
 31
0.0
  0
LINE
  5
2D3
100
AcDbEntity
  8
0
100
AcDbLine
 62
7
  6
CONTINUOUS
 10
219.7637536075
 20
332.9749210945
 30
0.0
 11
219.7268364964
 21
332.9749210945
 31
0.0
  0
LINE
  5
2D4
100
AcDbEntity
  8
0
100
AcDbLine
 62
7
  6
CONTINUOUS
 10
215.3691293045
 20
332.9749210945
 30
0.0
 11
215.4058065681
 21
332.9749210945
 31
0.0
  0
LINE
  5
2D5
100
AcDbEntity
  8
0
100
AcDbLine
 62
7
  6
CONTINUOUS
 10
215.4060208256
 20
333.4249210947
 30
0.0
 11
219.7268364964
 21
333.4249210947
 31
0.0
  0
LINE
  5
2D6
100
AcDbEntity
  8
0
100
AcDbLine
 62
7
  6
CONTINUOUS
 10
212.9545505437
 20
333.4263675784
 30
0.0
 11
212.9281616977
 21
333.4263675784
 31
0.0
  0
LINE
  5
2D7
100
AcDbEntity
  8
0
100
AcDbLine
 62
7
  6
CONTINUOUS
 10
213.701347399
 20
333.4263675785
 30
0.0
 11
213.7321343859
 21
333.4263675785
 31
0.0
  0
LINE
  5
2D8
100
AcDbEntity
  8
0
100
AcDbLine
 62
7
  6
CONTINUOUS
 10
219.7907540362
 20
333.4749210945
 30
0.0
 11
215.3647677466
 21
333.4749210945
 31
0.0
  0
LINE
  5
2D9
100
AcDbEntity
  8
0
100
AcDbLine
 62
9
  6
CONTINUOUS
 10
213.7350664799
 20
333.5263675785
 30
0.0
 11
213.698415305
 21
333.5263675785
 31
0.0
  0
LINE
  5
2DA
100
AcDbEntity
  8
0
100
AcDbLine
 62
9
  6
CONTINUOUS
 10
212.9574826377
 20
333.5263675784
 30
0.0
 11
212.9252296038
 21
333.5263675784
 31
0.0
  0
LINE
  5
2DB
100
AcDbEntity
  8
0
100
AcDbLine
 62
9
  6
CONTINUOUS
 10
212.5736706656
 20
333.7848485215
 30
0.0
 11
212.5861021692
 21
333.7848485215
 31
0.0
  0
LINE
  5
2DC
100
AcDbEntity
  8
0
100
AcDbLine
 62
7
  6
CONTINUOUS
 10
213.4187994379
 20
333.7848485215
 30
0.0
 11
213.4202670479
 21
333.7848485215
 31
0.0
  0
LINE
  5
2DD
100
AcDbEntity
  8
0
100
AcDbLine
 62
7
  6
CONTINUOUS
 10
213.5038301637
 20
333.7848485215
 30
0.0
 11
213.5052977737
 21
333.7848485215
 31
0.0
  0
LINE
  5
2DE
100
AcDbEntity
  8
0
100
AcDbLine
 62
7
  6
CONTINUOUS
 10
213.7962397814
 20
333.7848485215
 30
0.0
 11
213.7977073914
 21
333.7848485215
 31
0.0
  0
LINE
  5
2DF
100
AcDbEntity
  8
0
100
AcDbLine
 62
7
  6
CONTINUOUS
 10
213.8812705072
 20
333.7848485215
 30
0.0
 11
213.8827381172
 21
333.7848485215
 31
0.0
  0
LINE
  5
2E0
100
AcDbEntity
  8
0
100
AcDbLine
 62
9
  6
CONTINUOUS
 10
214.6428959553
 20
333.7848485216
 30
0.0
 11
214.6553274589
 21
333.7848485216
 31
0.0
  0
LINE
  5
2E1
100
AcDbEntity
  8
0
100
AcDbLine
 62
7
  6
CONTINUOUS
 10
212.5861021692
 20
333.9348485215
 30
0.0
 11
212.5780694766
 21
333.9348485215
 31
0.0
  0
LINE
  5
2E2
100
AcDbEntity
  8
0
100
AcDbLine
 62
7
  6
CONTINUOUS
 10
214.6472947662
 20
333.9348485216
 30
0.0
 11
214.6553274589
 21
333.9348485216
 31
0.0
  0
LINE
  5
2E3
100
AcDbEntity
  8
0
100
AcDbLine
 62
9
  6
CONTINUOUS
 10
212.9252296038
 20
333.9763675784
 30
0.0
 11
212.9574826377
 21
333.9763675784
 31
0.0
  0
LINE
  5
2E4
100
AcDbEntity
  8
0
100
AcDbLine
 62
9
  6
CONTINUOUS
 10
213.698415305
 20
333.9763675785
 30
0.0
 11
213.7350664799
 21
333.9763675785
 31
0.0
  0
LINE
  5
2E5
100
AcDbEntity
  8
0
100
AcDbLine
 62
7
  6
CONTINUOUS
 10
213.7321343859
 20
334.0763675785
 30
0.0
 11
213.701347399
 21
334.0763675785
 31
0.0
  0
LINE
  5
2E6
100
AcDbEntity
  8
0
100
AcDbLine
 62
7
  6
CONTINUOUS
 10
212.9281616977
 20
334.0763675784
 30
0.0
 11
212.9545505437
 21
334.0763675784
 31
0.0
  0
LINE
  5
2E7
100
AcDbEntity
  8
0
100
AcDbLine
 62
7
  6
CONTINUOUS
 10
214.5804805195
 20
334.4413675785
 30
0.0
 11
214.8246764337
 21
334.4413675786
 31
0.0
  0
LINE
  5
2E8
100
AcDbEntity
  8
0
100
AcDbLine
 62
7
  6
CONTINUOUS
 10
212.4768611214
 20
334.4413675784
 30
0.0
 11
214.4536250146
 21
334.4413675784
 31
0.0
  0
LINE
  5
2E9
100
AcDbEntity
  8
0
100
AcDbLine
 62
7
  6
CONTINUOUS
 10
214.9744020651
 20
334.4413675786
 30
0.0
 11
220.1811197177
 21
334.4413675786
 31
0.0
  0
LINE
  5
2EA
100
AcDbEntity
  8
0
100
AcDbLine
 62
7
  6
CONTINUOUS
 10
214.5186074349
 20
334.4499210947
 30
0.0
 11
214.5826201678
 21
334.4499210947
 31
0.0
  0
LINE
  5
2EB
100
AcDbEntity
  8
0
100
AcDbLine
 62
7
  6
CONTINUOUS
 10
214.6117490686
 20
334.5663675786
 30
0.0
 11
214.5186074349
 21
334.5663675786
 31
0.0
  0
LINE
  5
2EC
100
AcDbEntity
  8
0
100
AcDbLine
 62
7
  6
CONTINUOUS
 10
214.9245644373
 20
334.7363675786
 30
0.0
 11
214.9425753991
 21
334.7363675786
 31
0.0
  0
LINE
  5
2ED
100
AcDbEntity
  8
0
100
AcDbLine
 62
7
  6
CONTINUOUS
 10
212.5540279455
 20
334.7413675784
 30
0.0
 11
214.5242660455
 21
334.7413675784
 31
0.0
  0
LINE
  5
2EE
100
AcDbEntity
  8
0
100
AcDbLine
 62
7
  6
CONTINUOUS
 10
214.5285160043
 20
334.7413675784
 30
0.0
 11
220.245348455
 21
334.7413675786
 31
0.0
  0
LINE
  5
2EF
100
AcDbEntity
  8
0
100
AcDbLine
 62
7
  6
CONTINUOUS
 10
218.7297048727
 20
334.9181622245
 30
0.0
 11
214.0694679509
 21
334.9181622244
 31
0.0
  0
LINE
  5
2F0
100
AcDbEntity
  8
0
100
AcDbLine
 62
7
  6
CONTINUOUS
 10
96.3335131609
 20
96.0368653715
 30
0.0
 11
108.833513147
 21
96.0368653715
 31
0.0
  0
LINE
  5
2F1
100
AcDbEntity
  8
0
100
AcDbLine
 62
7
  6
CONTINUOUS
 10
68.0844835704
 20
334.7413675785
 30
0.0
 11
68.2612022033
 21
334.9181622245
 31
0.0
  0
LINE
  5
2F2
100
AcDbEntity
  8
0
100
AcDbLine
 62
7
  6
CONTINUOUS
 10
68.3389046008
 20
334.9181622245
 30
0.0
 11
68.1621859679
 21
334.7413675785
 31
0.0
  0
LINE
  5
2F3
100
AcDbEntity
  8
0
100
AcDbLine
 62
9
  6
CONTINUOUS
 10
94.9810889085
 20
333.6098751749
 30
0.0
 11
94.963550721
 21
333.6033295255
 31
0.0
  0
LINE
  5
2F4
100
AcDbEntity
  8
0
100
AcDbLine
 62
9
  6
CONTINUOUS
 10
97.7049439334
 20
333.7848485215
 30
0.0
 11
97.6874057459
 21
333.7783028722
 31
0.0
  0
LINE
  5
2F5
100
AcDbEntity
  8
0
100
AcDbLine
 62
9
  6
CONTINUOUS
 10
97.87984205
 20
333.6098751749
 30
0.0
 11
97.8623038625
 21
333.6033295255
 31
0.0
  0
LINE
  5
2F6
100
AcDbEntity
  8
0
100
AcDbLine
 62
9
  6
CONTINUOUS
 10
94.963550721
 20
331.9924054268
 30
0.0
 11
94.9771828503
 21
331.9974932466
 31
0.0
  0
LINE
  5
2F7
100
AcDbEntity
  8
0
100
AcDbLine
 62
9
  6
CONTINUOUS
 10
95.2134051733
 20
331.742443503
 30
0.0
 11
95.2161194349
 21
331.743456527
 31
0.0
  0
LINE
  5
2F8
100
AcDbEntity
  8
0
100
AcDbLine
 62
9
  6
CONTINUOUS
 10
107.8482774464
 20
333.6098751749
 30
0.0
 11
107.8307392589
 21
333.6033295255
 31
0.0
  0
LINE
  5
2F9
100
AcDbEntity
  8
0
100
AcDbLine
 62
9
  6
CONTINUOUS
 10
110.7294924005
 20
333.6033295255
 30
0.0
 11
110.747030588
 21
333.6098751749
 31
0.0
  0
LINE
  5
2FA
100
AcDbEntity
  8
0
100
AcDbLine
 62
9
  6
CONTINUOUS
 10
107.8307392589
 20
331.9924054267
 30
0.0
 11
107.8456611654
 21
331.9979746206
 31
0.0
  0
LINE
  5
2FB
100
AcDbEntity
  8
0
100
AcDbLine
 62
9
  6
CONTINUOUS
 10
108.0805937113
 20
331.7424435029
 30
0.0
 11
108.0833079729
 21
331.7434565269
 31
0.0
  0
LINE
  5
2FC
100
AcDbEntity
  8
0
100
AcDbLine
 62
7
  6
CONTINUOUS
 10
96.9585131536
 20
328.6868615029
 30
0.0
 11
96.7085131536
 21
328.4368615029
 31
0.0
  0
LINE
  5
2FD
100
AcDbEntity
  8
0
100
AcDbLine
 62
9
  6
CONTINUOUS
 10
62.4951391851
 20
334.4413675786
 30
0.0
 11
62.5679078682
 21
334.7413675786
 31
0.0
  0
LINE
  5
2FE
100
AcDbEntity
  8
0
100
AcDbLine
 62
9
  6
CONTINUOUS
 10
62.7176334997
 20
334.7413675786
 30
0.0
 11
62.6448648165
 21
334.4413675786
 31
0.0
  0
LINE
  5
2FF
100
AcDbEntity
  8
0
100
AcDbLine
 62
7
  6
CONTINUOUS
 10
62.4195744865
 20
334.7413675786
 30
0.0
 11
62.3424076623
 21
334.4413675786
 31
0.0
  0
LINE
  5
300
100
AcDbEntity
  8
0
100
AcDbLine
 62
9
  6
CONTINUOUS
 10
97.2257070607
 20
331.742443503
 30
0.0
 11
97.2263961454
 21
331.743456527
 31
0.0
  0
LINE
  5
301
100
AcDbEntity
  8
0
100
AcDbLine
 62
7
  6
CONTINUOUS
 10
96.9585131536
 20
312.4368615029
 30
0.0
 11
96.7085131536
 21
312.1868615029
 31
0.0
  0
LINE
  5
302
100
AcDbEntity
  8
0
100
AcDbLine
 62
9
  6
CONTINUOUS
 10
110.0928955987
 20
331.7424435029
 30
0.0
 11
110.0935846834
 21
331.7434565269
 31
0.0
  0
LINE
  5
303
100
AcDbEntity
  8
0
100
AcDbLine
 62
9
  6
CONTINUOUS
 10
107.8482774464
 20
332.1227553832
 30
0.0
 11
107.9520556744
 21
332.2607074585
 31
0.0
  0
LINE
  5
304
100
AcDbEntity
  8
0
100
AcDbLine
 62
9
  6
CONTINUOUS
 10
108.2004309042
 20
332.1094642617
 30
0.0
 11
107.9545702262
 21
331.782642428
 31
0.0
  0
LINE
  5
305
100
AcDbEntity
  8
0
100
AcDbLine
 62
7
  6
CONTINUOUS
 10
108.2085131536
 20
312.9368615029
 30
0.0
 11
108.4585131536
 21
313.1868615029
 31
0.0
  0
LINE
  5
306
100
AcDbEntity
  8
0
100
AcDbLine
 62
7
  6
CONTINUOUS
 10
96.9585131536
 20
296.1868615029
 30
0.0
 11
96.7085131536
 21
295.9368615029
 31
0.0
  0
LINE
  5
307
100
AcDbEntity
  8
0
100
AcDbLine
 62
7
  6
CONTINUOUS
 10
66.3527512984
 20
331.7489891524
 30
0.0
 11
66.3782837406
 21
331.9122946355
 31
0.0
  0
LINE
  5
308
100
AcDbEntity
  8
0
100
AcDbLine
 62
7
  6
CONTINUOUS
 10
108.2085131536
 20
296.6868615029
 30
0.0
 11
108.4585131536
 21
296.9368615029
 31
0.0
  0
LINE
  5
309
100
AcDbEntity
  8
0
100
AcDbLine
 62
7
  6
CONTINUOUS
 10
108.2085131536
 20
295.1868615029
 30
0.0
 11
108.4585131536
 21
295.4368615029
 31
0.0
  0
LINE
  5
30A
100
AcDbEntity
  8
0
100
AcDbLine
 62
9
  6
CONTINUOUS
 10
97.157680473
 20
332.3502995922
 30
0.0
 11
97.2975442306
 21
332.7541423576
 31
0.0
  0
LINE
  5
30B
100
AcDbEntity
  8
0
100
AcDbLine
 62
9
  6
CONTINUOUS
 10
97.4800140305
 20
332.5156596707
 30
0.0
 11
97.3917158673
 21
332.2607074585
 31
0.0
  0
LWPOLYLINE
  5
30C
100
AcDbEntity
  8
0
100
AcDbPolyline
 62
7
  6
CONTINUOUS
 90
14
 70
0
 10
62.3430898788
 20
331.3155034766
 10
62.3434363156
 20
331.301514307
 10
62.3437977134
 20
331.2906515131
 10
62.3441718729
 20
331.2820001515
 10
62.3445945899
 20
331.2744439962
 10
62.3451102959
 20
331.2674522471
 10
62.3457634073
 20
331.2608236815
 10
62.3466694584
 20
331.2539338227
 10
62.3480132025
 20
331.2462325292
 10
62.34995281
 20
331.2377114196
 10
62.3525497876
 20
331.2287332367
 10
62.3558948335
 20
331.2194094641
 10
62.3601491416
 20
331.2096808531
 10
62.3653333582
 20
331.1998201951
  0
LWPOLYLINE
  5
30D
100
AcDbEntity
  8
0
100
AcDbPolyline
 62
7
  6
CONTINUOUS
 90
3
 70
0
 10
62.3425889004
 20
331.3513305114
 10
62.3427956881
 20
331.3324273982
 10
62.3430898788
 20
331.3155034766
  0
LINE
  5
30E
100
AcDbEntity
  8
0
100
AcDbLine
 62
7
  6
CONTINUOUS
 10
62.3424747685
 20
331.3803923513
 30
0.0
 11
62.3425889004
 21
331.3513305114
 31
0.0
  0
LINE
  5
30F
100
AcDbEntity
  8
0
100
AcDbLine
 62
7
  6
CONTINUOUS
 10
62.3544215551
 20
331.2743550712
 30
0.0
 11
62.3538584743
 21
333.4749210945
 31
0.0
  0
LINE
  5
310
100
AcDbEntity
  8
0
100
AcDbLine
 62
7
  6
CONTINUOUS
 10
62.3425389798
 20
331.380378392
 30
0.0
 11
62.3425389798
 21
334.4413675786
 31
0.0
  0
LINE
  5
311
100
AcDbEntity
  8
0
100
AcDbLine
 62
7
  6
CONTINUOUS
 10
62.3557334028
 20
331.2743550712
 30
0.0
 11
62.3557334028
 21
333.4249210947
 31
0.0
  0
LINE
  5
312
100
AcDbEntity
  8
0
100
AcDbLine
 62
7
  6
CONTINUOUS
 10
62.4818134446
 20
333.4249210947
 30
0.0
 11
62.4818134446
 21
331.2743550712
 31
0.0
  0
LINE
  5
313
100
AcDbEntity
  8
0
100
AcDbLine
 62
9
  6
CONTINUOUS
 10
62.4950078676
 20
334.4413675786
 30
0.0
 11
62.4950078676
 21
331.3803783994
 31
0.0
  0
LINE
  5
314
100
AcDbEntity
  8
0
100
AcDbLine
 62
9
  6
CONTINUOUS
 10
62.6493415159
 20
331.3803923513
 30
0.0
 11
62.6493415159
 21
334.4413675786
 31
0.0
  0
LINE
  5
315
100
AcDbEntity
  8
0
100
AcDbLine
 62
7
  6
CONTINUOUS
 10
65.9451655904
 20
331.5805333345
 30
0.0
 11
65.9451655904
 21
333.7848485215
 31
0.0
  0
LINE
  5
316
100
AcDbEntity
  8
0
100
AcDbLine
 62
7
  6
CONTINUOUS
 10
66.3383238723
 20
333.9348485215
 30
0.0
 11
66.3383238722
 21
331.7489891524
 31
0.0
  0
LINE
  5
317
100
AcDbEntity
  8
0
100
AcDbLine
 62
7
  6
CONTINUOUS
 10
66.3689636922
 20
333.9348485215
 30
0.0
 11
66.3689636922
 21
332.9026950667
 31
0.0
  0
LINE
  5
318
100
AcDbEntity
  8
0
100
AcDbLine
 62
7
  6
CONTINUOUS
 10
68.4180822922
 20
332.9026950667
 30
0.0
 11
68.4180822922
 21
333.9348485216
 31
0.0
  0
LINE
  5
319
100
AcDbEntity
  8
0
100
AcDbLine
 62
7
  6
CONTINUOUS
 10
68.4267314072
 20
331.7489891524
 30
0.0
 11
68.4267314072
 21
333.9348485216
 31
0.0
  0
LINE
  5
31A
100
AcDbEntity
  8
0
100
AcDbLine
 62
7
  6
CONTINUOUS
 10
68.8243422065
 20
333.7848485216
 30
0.0
 11
68.8243422065
 21
331.4305333345
 31
0.0
  0
LINE
  5
31B
100
AcDbEntity
  8
0
100
AcDbLine
 62
7
  6
CONTINUOUS
 10
68.841880394
 20
333.7848485216
 30
0.0
 11
68.841880394
 21
331.4305333345
 31
0.0
  0
LINE
  5
31C
100
AcDbEntity
  8
0
100
AcDbLine
 62
7
  6
CONTINUOUS
 10
62.4836883731
 20
333.4749210945
 30
0.0
 11
62.4831252923
 21
331.2743550712
 31
0.0
  0
LINE
  5
31D
100
AcDbEntity
  8
0
100
AcDbLine
 62
7
  6
CONTINUOUS
 10
68.4156177986
 20
332.650942002
 30
0.0
 11
68.4133152288
 21
332.5545221836
 31
0.0
  0
LINE
  5
31E
100
AcDbEntity
  8
0
100
AcDbLine
 62
7
  6
CONTINUOUS
 10
66.3858511966
 20
332.5545221836
 30
0.0
 11
66.3776942549
 21
332.650942002
 31
0.0
  0
LINE
  5
31F
100
AcDbEntity
  8
0
100
AcDbLine
 62
7
  6
CONTINUOUS
 10
68.4154513965
 20
331.9122946355
 30
0.0
 11
68.4226587832
 21
331.7489891524
 31
0.0
  0
LINE
  5
320
100
AcDbEntity
  8
0
100
AcDbLine
 62
7
  6
CONTINUOUS
 10
70.9648474773
 20
334.7413675785
 30
0.0
 11
70.9696634825
 21
334.4413675785
 31
0.0
  0
LINE
  5
321
100
AcDbEntity
  8
0
100
AcDbLine
 62
7
  6
CONTINUOUS
 10
70.9696634825
 20
334.4413675785
 30
0.0
 11
70.9857266332
 21
332.5999210947
 31
0.0
  0
LINE
  5
322
100
AcDbEntity
  8
0
100
AcDbLine
 62
9
  6
CONTINUOUS
 10
71.0465497313
 20
334.7163675786
 30
0.0
 11
71.0465497313
 21
334.4913675784
 31
0.0
  0
LINE
  5
323
100
AcDbEntity
  8
0
100
AcDbLine
 62
9
  6
CONTINUOUS
 10
71.1999295065
 20
334.4913675784
 30
0.0
 11
71.1999295065
 21
334.7163675786
 31
0.0
  0
LINE
  5
324
100
AcDbEntity
  8
0
100
AcDbLine
 62
7
  6
CONTINUOUS
 10
71.2131336411
 20
334.4499210947
 30
0.0
 11
71.2131336411
 21
334.4913675784
 31
0.0
  0
LINE
  5
325
100
AcDbEntity
  8
0
100
AcDbLine
 62
9
  6
CONTINUOUS
 10
71.2244358775
 20
334.7163675786
 30
0.0
 11
71.2244358775
 21
334.4499210947
 31
0.0
  0
LINE
  5
326
100
AcDbEntity
  8
0
100
AcDbLine
 62
9
  6
CONTINUOUS
 10
71.4800688362
 20
334.4499210947
 30
0.0
 11
71.4800688362
 21
334.5663675786
 31
0.0
  0
LINE
  5
327
100
AcDbEntity
  8
0
100
AcDbLine
 62
7
  6
CONTINUOUS
 10
71.7356498441
 20
334.7163675786
 30
0.0
 11
71.7356498441
 21
334.9181622245
 31
0.0
  0
LINE
  5
328
100
AcDbEntity
  8
0
100
AcDbLine
 62
9
  6
CONTINUOUS
 10
72.0422326509
 20
334.9181622245
 30
0.0
 11
72.0422326509
 21
334.7163675786
 31
0.0
  0
LINE
  5
329
100
AcDbEntity
  8
0
100
AcDbLine
 62
9
  6
CONTINUOUS
 10
72.6522703551
 20
334.7163675786
 30
0.0
 11
72.6522703551
 21
334.9181622245
 31
0.0
  0
LINE
  5
32A
100
AcDbEntity
  8
0
100
AcDbLine
 62
7
  6
CONTINUOUS
 10
72.9851124051
 20
334.9181622245
 30
0.0
 11
72.9851124051
 21
334.7163675786
 31
0.0
  0
LINE
  5
32B
100
AcDbEntity
  8
0
100
AcDbLine
 62
9
  6
CONTINUOUS
 10
74.7812913025
 20
334.5663675786
 30
0.0
 11
74.7812913025
 21
334.4499210947
 31
0.0
  0
LINE
  5
32C
100
AcDbEntity
  8
0
100
AcDbLine
 62
9
  6
CONTINUOUS
 10
75.0235415353
 20
334.4499210947
 30
0.0
 11
75.0235415353
 21
334.7163675786
 31
0.0
  0
LINE
  5
32D
100
AcDbEntity
  8
0
100
AcDbLine
 62
7
  6
CONTINUOUS
 10
75.0291678866
 20
334.4499210947
 30
0.0
 11
75.0291678866
 21
334.4913675784
 31
0.0
  0
LINE
  5
32E
100
AcDbEntity
  8
0
100
AcDbLine
 62
9
  6
CONTINUOUS
 10
75.0417673125
 20
334.7163675786
 30
0.0
 11
75.0417673125
 21
334.4913675784
 31
0.0
  0
LINE
  5
32F
100
AcDbEntity
  8
0
100
AcDbLine
 62
9
  6
CONTINUOUS
 10
75.1871174522
 20
334.4913675784
 30
0.0
 11
75.1871174522
 21
334.7163675786
 31
0.0
  0
LINE
  5
330
100
AcDbEntity
  8
0
100
AcDbLine
 62
7
  6
CONTINUOUS
 10
75.2942507369
 20
334.4413675784
 30
0.0
 11
75.2946686011
 21
334.7413675784
 31
0.0
  0
LINE
  5
331
100
AcDbEntity
  8
0
100
AcDbLine
 62
7
  6
CONTINUOUS
 10
75.2671922337
 20
332.5999210947
 30
0.0
 11
75.2836915402
 21
334.4913675784
 31
0.0
  0
LINE
  5
332
100
AcDbEntity
  8
0
100
AcDbLine
 62
7
  6
CONTINUOUS
 10
75.2942507369
 20
334.4413675784
 30
0.0
 11
75.2781875862
 21
332.5999210947
 31
0.0
  0
LINE
  5
333
100
AcDbEntity
  8
0
100
AcDbLine
 62
7
  6
CONTINUOUS
 10
75.2814740943
 20
334.7413675784
 30
0.0
 11
75.2792293454
 21
334.4913675784
 31
0.0
  0
LINE
  5
334
100
AcDbEntity
  8
0
100
AcDbLine
 62
9
  6
CONTINUOUS
 10
94.9810889085
 20
332.0742447983
 30
0.0
 11
95.0073804409
 21
332.2424054217
 31
0.0
  0
LINE
  5
335
100
AcDbEntity
  8
0
100
AcDbLine
 62
9
  6
CONTINUOUS
 10
95.1589173313
 20
332.1094642617
 30
0.0
 11
95.1060283264
 21
331.7711862228
 31
0.0
  0
LINE
  5
336
100
AcDbEntity
  8
0
100
AcDbLine
 62
7
  6
CONTINUOUS
 10
94.581260889
 20
331.9989129999
 30
0.0
 11
94.581260889
 21
333.6098751749
 31
0.0
  0
LINE
  5
337
100
AcDbEntity
  8
0
100
AcDbLine
 62
7
  6
CONTINUOUS
 10
94.963550721
 20
333.6033295255
 30
0.0
 11
94.963550721
 21
331.9924054268
 31
0.0
  0
LINE
  5
338
100
AcDbEntity
  8
0
100
AcDbLine
 62
7
  6
CONTINUOUS
 10
94.9810757953
 20
332.0754651848
 30
0.0
 11
94.9810889085
 21
332.5531867046
 31
0.0
  0
LINE
  5
339
100
AcDbEntity
  8
0
100
AcDbLine
 62
7
  6
CONTINUOUS
 10
94.9810889085
 20
332.5531867046
 30
0.0
 11
94.9810889085
 21
333.6098751749
 31
0.0
  0
LINE
  5
33A
100
AcDbEntity
  8
ALL_FEATURES
100
AcDbLine
 62
7
  6
CONTINUOUS
 10
96.7247698635
 20
298.1198742047
 30
0.0
 11
96.713774511
 21
297.9033678538
 31
0.0
  0
LINE
  5
33B
100
AcDbEntity
  8
ALL_FEATURES
100
AcDbLine
 62
7
  6
CONTINUOUS
 10
96.7247698635
 20
297.253848801
 30
0.0
 11
96.735765216
 21
297.4703551519
 31
0.0
  0
LINE
  5
33C
100
AcDbEntity
  8
ALL_FEATURES
100
AcDbLine
 62
7
  6
CONTINUOUS
 10
96.713774511
 20
297.4703551519
 30
0.0
 11
96.7247698635
 21
297.253848801
 31
0.0
  0
LINE
  5
33D
100
AcDbEntity
  8
ALL_FEATURES
100
AcDbLine
 62
7
  6
CONTINUOUS
 10
96.735765216
 20
297.9033678538
 30
0.0
 11
96.7247698635
 21
298.1198742047
 31
0.0
  0
LINE
  5
33E
100
AcDbEntity
  8
0
100
AcDbLine
 62
7
  6
CONTINUOUS
 10
96.3335131539
 20
96.0368653715
 30
0.0
 11
96.3335131539
 21
246.0368653715
 31
0.0
  0
LINE
  5
33F
100
AcDbEntity
  8
0
100
AcDbLine
 62
7
  6
CONTINUOUS
 10
96.7085131536
 20
295.9368615029
 30
0.0
 11
96.7085131536
 21
295.4368615029
 31
0.0
  0
LINE
  5
340
100
AcDbEntity
  8
0
100
AcDbLine
 62
7
  6
CONTINUOUS
 10
96.7085131536
 20
296.9368615029
 30
0.0
 11
96.7085131536
 21
297.0618397597
 31
0.0
  0
LINE
  5
341
100
AcDbEntity
  8
0
100
AcDbLine
 62
7
  6
CONTINUOUS
 10
96.7085131536
 20
298.311883246
 30
0.0
 11
96.7085131536
 21
312.1868615029
 31
0.0
  0
LINE
  5
342
100
AcDbEntity
  8
0
100
AcDbLine
 62
7
  6
CONTINUOUS
 10
96.7085131536
 20
313.1868615029
 30
0.0
 11
96.7085131536
 21
328.4368615029
 31
0.0
  0
LINE
  5
343
100
AcDbEntity
  8
ALL_FEATURES
100
AcDbLine
 62
7
  6
CONTINUOUS
 10
96.713774511
 20
297.9033678538
 30
0.0
 11
96.713774511
 21
297.4703551519
 31
0.0
  0
LINE
  5
344
100
AcDbEntity
  8
ALL_FEATURES
100
AcDbLine
 62
7
  6
CONTINUOUS
 10
96.735765216
 20
297.4703551519
 30
0.0
 11
96.735765216
 21
297.9033678538
 31
0.0
  0
LINE
  5
345
100
AcDbEntity
  8
0
100
AcDbLine
 62
7
  6
CONTINUOUS
 10
96.9585131536
 20
296.1868615029
 30
0.0
 11
96.9585131536
 21
296.6868615029
 31
0.0
  0
LINE
  5
346
100
AcDbEntity
  8
0
100
AcDbLine
 62
7
  6
CONTINUOUS
 10
96.9585131536
 20
312.4368615029
 30
0.0
 11
96.9585131536
 21
312.9368615029
 31
0.0
  0
LINE
  5
347
100
AcDbEntity
  8
0
100
AcDbLine
 62
7
  6
CONTINUOUS
 10
97.4800140305
 20
332.1227553832
 30
0.0
 11
97.4800140305
 21
333.6098751749
 31
0.0
  0
LINE
  5
348
100
AcDbEntity
  8
0
100
AcDbLine
 62
7
  6
CONTINUOUS
 10
97.8623038625
 20
333.6033295255
 30
0.0
 11
97.8623038625
 21
332.0054586492
 31
0.0
  0
LINE
  5
349
100
AcDbEntity
  8
0
100
AcDbLine
 62
7
  6
CONTINUOUS
 10
97.87984205
 20
331.9989129999
 30
0.0
 11
97.87984205
 21
333.6098751749
 31
0.0
  0
LINE
  5
34A
100
AcDbEntity
  8
0
100
AcDbLine
 62
7
  6
CONTINUOUS
 10
99.7903818481
 20
333.5263675785
 30
0.0
 11
99.7903818481
 21
333.9763675785
 31
0.0
  0
LINE
  5
34B
100
AcDbEntity
  8
0
100
AcDbLine
 62
7
  6
CONTINUOUS
 10
99.8335131536
 20
328.7345011826
 30
0.0
 11
99.8335131536
 21
328.6868615029
 31
0.0
  0
LINE
  5
34C
100
AcDbEntity
  8
0
100
AcDbLine
 62
7
  6
CONTINUOUS
 10
99.9065319487
 20
334.0263675785
 30
0.0
 11
99.9065319487
 21
333.8763675785
 31
0.0
  0
LINE
  5
34D
100
AcDbEntity
  8
0
100
AcDbLine
 62
7
  6
CONTINUOUS
 10
100.9061019975
 20
334.0263675785
 30
0.0
 11
100.9061019975
 21
333.8763675785
 31
0.0
  0
LINE
  5
34E
100
AcDbEntity
  8
0
100
AcDbLine
 62
7
  6
CONTINUOUS
 10
101.0288490567
 20
333.5263675785
 30
0.0
 11
101.0288490567
 21
333.9763675785
 31
0.0
  0
LINE
  5
34F
100
AcDbEntity
  8
0
100
AcDbLine
 62
7
  6
CONTINUOUS
 10
101.0398444092
 20
333.9763675785
 30
0.0
 11
101.0398444092
 21
333.5263675785
 31
0.0
  0
LINE
  5
350
100
AcDbEntity
  8
0
100
AcDbLine
 62
6
  6
CONTINUOUS
 10
101.9085131539
 20
246.0368653715
 30
0.0
 11
101.9085131539
 21
295.1868615029
 31
0.0
  0
LINE
  5
351
100
AcDbEntity
  8
0
100
AcDbLine
 62
6
  6
CONTINUOUS
 10
103.2585131539
 20
246.0368653715
 30
0.0
 11
103.2585131539
 21
295.1868615029
 31
0.0
  0
LINE
  5
352
100
AcDbEntity
  8
0
100
AcDbLine
 62
7
  6
CONTINUOUS
 10
99.9043327518
 20
333.7888625463
 30
0.0
 11
99.9065319487
 21
333.8763675785
 31
0.0
  0
LINE
  5
353
100
AcDbEntity
  8
0
100
AcDbLine
 62
7
  6
CONTINUOUS
 10
100.9061019975
 20
333.8763675785
 30
0.0
 11
100.9039028006
 21
333.7888625463
 31
0.0
  0
LINE
  5
354
100
AcDbEntity
  8
0
100
AcDbLine
 62
9
  6
CONTINUOUS
 10
95.0073804409
 20
332.2424054217
 30
0.0
 11
94.9810889085
 21
332.5531867046
 31
0.0
  0
LINE
  5
355
100
AcDbEntity
  8
0
100
AcDbLine
 62
9
  6
CONTINUOUS
 10
95.1257713329
 20
332.7541423576
 30
0.0
 11
95.1599356978
 21
332.3502995922
 31
0.0
  0
LINE
  5
356
100
AcDbEntity
  8
0
100
AcDbLine
 62
7
  6
CONTINUOUS
 10
105.3335131536
 20
328.7345011826
 30
0.0
 11
105.3335131536
 21
328.6868615029
 31
0.0
  0
LINE
  5
357
100
AcDbEntity
  8
0
100
AcDbLine
 62
7
  6
CONTINUOUS
 10
107.4484494269
 20
331.9989129999
 30
0.0
 11
107.4484494269
 21
333.6098751749
 31
0.0
  0
LINE
  5
358
100
AcDbEntity
  8
0
100
AcDbLine
 62
7
  6
CONTINUOUS
 10
107.8307392589
 20
333.6033295255
 30
0.0
 11
107.8307392589
 21
331.9924054267
 31
0.0
  0
LINE
  5
359
100
AcDbEntity
  8
0
100
AcDbLine
 62
7
  6
CONTINUOUS
 10
107.8482774464
 20
332.1227553832
 30
0.0
 11
107.8482774464
 21
333.6098751749
 31
0.0
  0
LINE
  5
35A
100
AcDbEntity
  8
0
100
AcDbLine
 62
7
  6
CONTINUOUS
 10
108.2085131536
 20
296.1868615029
 30
0.0
 11
108.2085131536
 21
296.6868615029
 31
0.0
  0
LINE
  5
35B
100
AcDbEntity
  8
0
100
AcDbLine
 62
7
  6
CONTINUOUS
 10
108.2085131536
 20
312.4368615029
 30
0.0
 11
108.2085131536
 21
312.9368615029
 31
0.0
  0
LINE
  5
35C
100
AcDbEntity
  8
0
100
AcDbLine
 62
7
  6
CONTINUOUS
 10
108.4585131536
 20
295.9368615029
 30
0.0
 11
108.4585131536
 21
295.4368615029
 31
0.0
  0
LINE
  5
35D
100
AcDbEntity
  8
0
100
AcDbLine
 62
7
  6
CONTINUOUS
 10
108.4585131536
 20
296.9368615029
 30
0.0
 11
108.4585131536
 21
297.0860692655
 31
0.0
  0
LINE
  5
35E
100
AcDbEntity
  8
0
100
AcDbLine
 62
7
  6
CONTINUOUS
 10
108.4585131536
 20
298.2876537402
 30
0.0
 11
108.4585131536
 21
312.1868615029
 31
0.0
  0
LINE
  5
35F
100
AcDbEntity
  8
0
100
AcDbLine
 62
7
  6
CONTINUOUS
 10
108.4585131536
 20
313.1868615029
 30
0.0
 11
108.4585131536
 21
326.0789854556
 31
0.0
  0
LINE
  5
360
100
AcDbEntity
  8
0
100
AcDbLine
 62
7
  6
CONTINUOUS
 10
108.4585131536
 20
327.7947375501
 30
0.0
 11
108.4585131536
 21
328.4368615029
 31
0.0
  0
LINE
  5
361
100
AcDbEntity
  8
0
100
AcDbLine
 62
7
  6
CONTINUOUS
 10
108.8335131539
 20
96.0368653715
 30
0.0
 11
108.8335131539
 21
246.0368653715
 31
0.0
  0
LINE
  5
362
100
AcDbEntity
  8
0
100
AcDbLine
 62
7
  6
CONTINUOUS
 10
110.3472025685
 20
332.0742447982
 30
0.0
 11
110.3472025685
 21
333.6098751749
 31
0.0
  0
LINE
  5
363
100
AcDbEntity
  8
0
100
AcDbLine
 62
7
  6
CONTINUOUS
 10
110.7294924005
 20
332.0054586492
 30
0.0
 11
110.7294924005
 21
333.6033295255
 31
0.0
  0
LINE
  5
364
100
AcDbEntity
  8
0
100
AcDbLine
 62
7
  6
CONTINUOUS
 10
110.747030588
 20
331.9989129999
 30
0.0
 11
110.747030588
 21
333.6098751749
 31
0.0
  0
LINE
  5
365
100
AcDbEntity
  8
0
100
AcDbLine
 62
9
  6
CONTINUOUS
 10
110.1928761083
 20
332.3502995922
 30
0.0
 11
110.2025201441
 21
332.7541423576
 31
0.0
  0
LINE
  5
366
100
AcDbEntity
  8
0
100
AcDbLine
 62
9
  6
CONTINUOUS
 10
110.3472025685
 20
332.5531867046
 30
0.0
 11
110.3397809032
 21
332.2424054217
 31
0.0
  0
LINE
  5
367
100
AcDbEntity
  8
0
100
AcDbLine
 62
9
  6
CONTINUOUS
 10
110.2067874341
 20
331.7711862228
 30
0.0
 11
110.1918577418
 21
332.1094642617
 31
0.0
  0
LINE
  5
368
100
AcDbEntity
  8
0
100
AcDbLine
 62
9
  6
CONTINUOUS
 10
110.3397809032
 20
332.2424054217
 30
0.0
 11
110.3472025685
 21
332.0742447982
 31
0.0
  0
LINE
  5
369
100
AcDbEntity
  8
0
100
AcDbLine
 62
7
  6
CONTINUOUS
 10
127.2517367614
 20
333.8763675784
 30
0.0
 11
127.2464831352
 21
333.7888625462
 31
0.0
  0
LINE
  5
36A
100
AcDbEntity
  8
0
100
AcDbLine
 62
7
  6
CONTINUOUS
 10
136.9195292332
 20
331.9122946355
 30
0.0
 11
136.8939967909
 21
331.7489891524
 31
0.0
  0
LINE
  5
36B
100
AcDbEntity
  8
0
100
AcDbLine
 62
7
  6
CONTINUOUS
 10
126.4285019259
 20
333.7888625462
 30
0.0
 11
126.4276466937
 21
333.8763675784
 31
0.0
  0
LINE
  5
36C
100
AcDbEntity
  8
0
100
AcDbLine
 62
7
  6
CONTINUOUS
 10
126.2987243562
 20
333.9763675784
 30
0.0
 11
126.2987243562
 21
333.5263675784
 31
0.0
  0
LINE
  5
36D
100
AcDbEntity
  8
0
100
AcDbLine
 62
7
  6
CONTINUOUS
 10
127.3872560574
 20
333.9763675784
 30
0.0
 11
127.3872560574
 21
333.5263675784
 31
0.0
  0
LINE
  5
36E
100
AcDbEntity
  8
0
100
AcDbLine
 62
7
  6
CONTINUOUS
 10
127.3982514099
 20
333.5263675784
 30
0.0
 11
127.3982514099
 21
333.9763675784
 31
0.0
  0
LINE
  5
36F
100
AcDbEntity
  8
0
100
AcDbLine
 62
7
  6
CONTINUOUS
 10
127.2569726247
 20
334.0263675784
 30
0.0
 11
127.2517367614
 21
333.8763675784
 31
0.0
  0
LINE
  5
370
100
AcDbEntity
  8
0
100
AcDbLine
 62
7
  6
CONTINUOUS
 10
126.4224108304
 20
334.0263675784
 30
0.0
 11
126.4276466937
 21
333.8763675784
 31
0.0
  0
LINE
  5
371
100
AcDbEntity
  8
0
100
AcDbLine
 62
7
  6
CONTINUOUS
 10
136.4864110829
 20
333.7848485216
 30
0.0
 11
136.4864110829
 21
331.4305333345
 31
0.0
  0
LINE
  5
372
100
AcDbEntity
  8
0
100
AcDbLine
 62
7
  6
CONTINUOUS
 10
136.8795693648
 20
331.7489891524
 30
0.0
 11
136.8795693648
 21
333.9348485216
 31
0.0
  0
LINE
  5
373
100
AcDbEntity
  8
0
100
AcDbLine
 62
7
  6
CONTINUOUS
 10
136.9102091847
 20
332.9026950667
 30
0.0
 11
136.9102091847
 21
333.9348485216
 31
0.0
  0
LINE
  5
374
100
AcDbEntity
  8
0
100
AcDbLine
 62
7
  6
CONTINUOUS
 10
138.9568632911
 20
332.650942002
 30
0.0
 11
138.9545607213
 21
332.5545221836
 31
0.0
  0
LINE
  5
375
100
AcDbEntity
  8
0
100
AcDbLine
 62
7
  6
CONTINUOUS
 10
96.3335131609
 20
246.0368653715
 30
0.0
 11
108.833513147
 21
246.0368653715
 31
0.0
  0
LINE
  5
376
100
AcDbEntity
  8
0
100
AcDbLine
 62
7
  6
CONTINUOUS
 10
138.9639042757
 20
331.7489891524
 30
0.0
 11
138.9566968891
 21
331.9122946355
 31
0.0
  0
LINE
  5
377
100
AcDbEntity
  8
0
100
AcDbLine
 62
7
  6
CONTINUOUS
 10
138.9593277848
 20
333.9348485215
 30
0.0
 11
138.9593277848
 21
332.9026950666
 31
0.0
  0
LINE
  5
378
100
AcDbEntity
  8
0
100
AcDbLine
 62
7
  6
CONTINUOUS
 10
138.9679768997
 20
333.9348485215
 30
0.0
 11
138.9679768997
 21
331.7489891524
 31
0.0
  0
LINE
  5
379
100
AcDbEntity
  8
0
100
AcDbLine
 62
7
  6
CONTINUOUS
 10
139.365587699
 20
331.5805333345
 30
0.0
 11
139.365587699
 21
333.7848485215
 31
0.0
  0
LINE
  5
37A
100
AcDbEntity
  8
0
100
AcDbLine
 62
7
  6
CONTINUOUS
 10
139.3831258866
 20
331.5805333345
 30
0.0
 11
139.3831258866
 21
333.7848485215
 31
0.0
  0
LINE
  5
37B
100
AcDbEntity
  8
0
100
AcDbLine
 62
9
  6
CONTINUOUS
 10
142.678949961
 20
334.4413675784
 30
0.0
 11
142.678949961
 21
331.3803923513
 31
0.0
  0
LWPOLYLINE
  5
37C
100
AcDbEntity
  8
0
100
AcDbPolyline
 62
7
  6
CONTINUOUS
 90
28
 70
0
 10
142.8244873274
 20
334.4413675784
 10
142.8244849886
 20
331.358126139
 10
142.8243172231
 20
331.3391347864
 10
142.8240757472
 20
331.3226914407
 10
142.8237932248
 20
331.3091687278
 10
142.8234834453
 20
331.2979955514
 10
142.8231486556
 20
331.288611234
 10
142.8227977176
 20
331.2808600564
 10
142.8224265606
 20
331.2743665591
 10
142.8219700193
 20
331.2680991387
 10
142.8213463749
 20
331.2615737173
 10
142.8204732045
 20
331.2547183168
 10
142.8191779478
 20
331.2470721598
 10
142.8171807769
 20
331.2381305844
 10
142.8142606865
 20
331.2280685526
 10
142.8103890948
 20
331.2175704613
 10
142.8054895484
 20
331.2068635385
 10
142.7993808268
 20
331.1959281382
 10
142.7921177091
 20
331.1851822958
 10
142.7837924329
 20
331.174912509
 10
142.7743338459
 20
331.1651688043
 10
142.7636682622
 20
331.1560313409
 10
142.751874198
 20
331.1477260174
 10
142.7390527078
 20
331.1404463812
 10
142.7251865089
 20
331.1343084474
 10
142.7104090032
 20
331.1295022725
 10
142.6950279177
 20
331.1262205406
 10
142.6810325227
 20
331.124661893
  0
LINE
  5
37D
100
AcDbEntity
  8
0
100
AcDbLine
 62
7
  6
CONTINUOUS
 10
136.9270966891
 20
332.5545221836
 30
0.0
 11
136.9189397475
 21
332.650942002
 31
0.0
  0
LINE
  5
37E
100
AcDbEntity
  8
0
100
AcDbLine
 62
9
  6
CONTINUOUS
 10
107.9520556744
 20
332.2607074585
 30
0.0
 11
107.8482774464
 21
332.5156596707
 31
0.0
  0
LINE
  5
37F
100
AcDbEntity
  8
0
100
AcDbLine
 62
9
  6
CONTINUOUS
 10
108.0307472463
 20
332.7541423576
 30
0.0
 11
108.1951313331
 21
332.3502995922
 31
0.0
  0
LINE
  5
380
100
AcDbEntity
  8
0
100
AcDbLine
 62
7
  6
CONTINUOUS
 10
96.9585131536
 20
295.1868615029
 30
0.0
 11
96.7085131536
 21
295.4368615029
 31
0.0
  0
LINE
  5
381
100
AcDbEntity
  8
0
100
AcDbLine
 62
7
  6
CONTINUOUS
 10
96.9585131536
 20
296.6868615029
 30
0.0
 11
96.7085131536
 21
296.9368615029
 31
0.0
  0
LINE
  5
382
100
AcDbEntity
  8
0
100
AcDbLine
 62
9
  6
CONTINUOUS
 10
97.3595310734
 20
331.7826424281
 30
0.0
 11
97.1503441689
 21
332.1094642617
 31
0.0
  0
LINE
  5
383
100
AcDbEntity
  8
0
100
AcDbLine
 62
9
  6
CONTINUOUS
 10
97.3917158673
 20
332.2607074585
 30
0.0
 11
97.4800140305
 21
332.1227553832
 31
0.0
  0
LINE
  5
384
100
AcDbEntity
  8
0
100
AcDbLine
 62
7
  6
CONTINUOUS
 10
108.2085131536
 20
296.1868615029
 30
0.0
 11
108.4585131536
 21
295.9368615029
 31
0.0
  0
LINE
  5
385
100
AcDbEntity
  8
0
100
AcDbLine
 62
7
  6
CONTINUOUS
 10
96.9585131536
 20
312.9368615029
 30
0.0
 11
96.7085131536
 21
313.1868615029
 31
0.0
  0
LINE
  5
386
100
AcDbEntity
  8
0
100
AcDbLine
 62
7
  6
CONTINUOUS
 10
108.2085131536
 20
312.4368615029
 30
0.0
 11
108.4585131536
 21
312.1868615029
 31
0.0
  0
LINE
  5
387
100
AcDbEntity
  8
0
100
AcDbLine
 62
9
  6
CONTINUOUS
 10
142.6834266604
 20
334.4413675784
 30
0.0
 11
142.6062598363
 21
334.7413675784
 31
0.0
  0
LINE
  5
388
100
AcDbEntity
  8
0
100
AcDbLine
 62
7
  6
CONTINUOUS
 10
142.7474518207
 20
334.7413675784
 30
0.0
 11
142.8246186449
 21
334.4413675784
 31
0.0
  0
LINE
  5
389
100
AcDbEntity
  8
0
100
AcDbLine
 62
7
  6
CONTINUOUS
 10
108.2085131082
 20
295.1868615028
 30
0.0
 11
96.9585131989
 21
295.1868615028
 31
0.0
  0
LINE
  5
38A
100
AcDbEntity
  8
0
100
AcDbLine
 62
7
  6
CONTINUOUS
 10
108.4585131536
 20
295.4368615029
 30
0.0
 11
96.7085131536
 21
295.4368615029
 31
0.0
  0
LINE
  5
38B
100
AcDbEntity
  8
0
100
AcDbLine
 62
7
  6
CONTINUOUS
 10
96.7085131536
 20
295.9368615029
 30
0.0
 11
108.4585131536
 21
295.9368615029
 31
0.0
  0
LINE
  5
38C
100
AcDbEntity
  8
0
100
AcDbLine
 62
7
  6
CONTINUOUS
 10
96.9585131989
 20
296.1868615029
 30
0.0
 11
108.2085131345
 21
296.1868615029
 31
0.0
  0
LINE
  5
38D
100
AcDbEntity
  8
0
100
AcDbLine
 62
7
  6
CONTINUOUS
 10
96.9585131536
 20
296.6868615029
 30
0.0
 11
108.2085131536
 21
296.6868615029
 31
0.0
  0
LINE
  5
38E
100
AcDbEntity
  8
0
100
AcDbLine
 62
7
  6
CONTINUOUS
 10
96.7085131536
 20
296.9368615029
 30
0.0
 11
108.4585131536
 21
296.9368615029
 31
0.0
  0
LINE
  5
38F
100
AcDbEntity
  8
ALL_FEATURES
100
AcDbLine
 62
7
  6
CONTINUOUS
 10
96.713774511
 20
297.4703551519
 30
0.0
 11
96.735765216
 21
297.4703551519
 31
0.0
  0
LINE
  5
390
100
AcDbEntity
  8
ALL_FEATURES
100
AcDbLine
 62
7
  6
CONTINUOUS
 10
96.713774511
 20
297.9033678538
 30
0.0
 11
96.735765216
 21
297.9033678538
 31
0.0
  0
LINE
  5
391
100
AcDbEntity
  8
0
100
AcDbLine
 62
7
  6
CONTINUOUS
 10
108.2085131536
 20
328.6868615029
 30
0.0
 11
108.4585131536
 21
328.4368615029
 31
0.0
  0
LINE
  5
392
100
AcDbEntity
  8
0
100
AcDbLine
 62
7
  6
CONTINUOUS
 10
96.7085131536
 20
312.1868615029
 30
0.0
 11
108.4585131536
 21
312.1868615029
 31
0.0
  0
LINE
  5
393
100
AcDbEntity
  8
0
100
AcDbLine
 62
7
  6
CONTINUOUS
 10
96.9585131536
 20
312.4368615029
 30
0.0
 11
108.2085131536
 21
312.4368615029
 31
0.0
  0
LINE
  5
394
100
AcDbEntity
  8
0
100
AcDbLine
 62
7
  6
CONTINUOUS
 10
96.9585131536
 20
312.9368615029
 30
0.0
 11
108.2085131536
 21
312.9368615029
 31
0.0
  0
LINE
  5
395
100
AcDbEntity
  8
0
100
AcDbLine
 62
7
  6
CONTINUOUS
 10
96.7085131536
 20
313.1868615029
 30
0.0
 11
108.4585131536
 21
313.1868615029
 31
0.0
  0
LINE
  5
396
100
AcDbEntity
  8
0
100
AcDbLine
 62
9
  6
CONTINUOUS
 10
97.8623038625
 20
332.0054586492
 30
0.0
 11
97.87984205
 21
331.9989129999
 31
0.0
  0
LINE
  5
397
100
AcDbEntity
  8
0
100
AcDbLine
 62
7
  6
CONTINUOUS
 10
137.0825427367
 20
334.7413675784
 30
0.0
 11
136.9058241038
 21
334.9181622244
 31
0.0
  0
LINE
  5
398
100
AcDbEntity
  8
0
100
AcDbLine
 62
7
  6
CONTINUOUS
 10
99.8335237008
 20
328.7345005069
 30
0.0
 11
99.8346955193
 21
328.7345769625
 31
0.0
  0
LINE
  5
399
100
AcDbEntity
  8
0
100
AcDbLine
 62
7
  6
CONTINUOUS
 10
142.6810303859
 20
331.1246622069
 30
0.0
 11
105.2185600384
 21
328.7256582544
 31
0.0
  0
LINE
  5
39A
100
AcDbEntity
  8
0
100
AcDbLine
 62
9
  6
CONTINUOUS
 10
102.6641457385
 20
330.5568610252
 30
0.0
 11
142.678949961
 21
331.3803923513
 31
0.0
  0
LINE
  5
39B
100
AcDbEntity
  8
0
100
AcDbLine
 62
7
  6
CONTINUOUS
 10
96.7085131536
 20
328.4368615029
 30
0.0
 11
108.4585131536
 21
328.4368615029
 31
0.0
  0
LINE
  5
39C
100
AcDbEntity
  8
0
100
AcDbLine
 62
7
  6
CONTINUOUS
 10
96.9585131632
 20
328.6868615029
 30
0.0
 11
108.208513144
 21
328.6868615029
 31
0.0
  0
LINE
  5
39D
100
AcDbEntity
  8
0
100
AcDbLine
 62
7
  6
CONTINUOUS
 10
65.0326102831
 20
330.9619425114
 30
0.0
 11
65.0338421907
 21
330.9619425114
 31
0.0
  0
LINE
  5
39E
100
AcDbEntity
  8
0
100
AcDbLine
 62
7
  6
CONTINUOUS
 10
65.1599222326
 20
330.9619425114
 30
0.0
 11
65.1611541402
 21
330.9619425114
 31
0.0
  0
LINE
  5
39F
100
AcDbEntity
  8
0
100
AcDbLine
 62
9
  6
CONTINUOUS
 10
62.4960789547
 20
331.1246622069
 30
0.0
 11
62.6221589965
 21
331.1246622069
 31
0.0
  0
LINE
  5
3A0
100
AcDbEntity
  8
0
100
AcDbLine
 62
9
  6
CONTINUOUS
 10
62.6234325408
 20
331.1246622069
 30
0.0
 11
62.6322420299
 21
331.1246622069
 31
0.0
  0
LINE
  5
3A1
100
AcDbEntity
  8
0
100
AcDbLine
 62
9
  6
CONTINUOUS
 10
62.4918961635
 20
331.2743550712
 30
0.0
 11
62.4831252923
 21
331.2743550712
 31
0.0
  0
LINE
  5
3A2
100
AcDbEntity
  8
0
100
AcDbLine
 62
9
  6
CONTINUOUS
 10
62.4818134446
 20
331.2743550712
 30
0.0
 11
62.3557334028
 21
331.2743550712
 31
0.0
  0
LINE
  5
3A3
100
AcDbEntity
  8
0
100
AcDbLine
 62
9
  6
CONTINUOUS
 10
142.8245517637
 20
331.3803923513
 30
0.0
 11
142.678949961
 21
331.3803923513
 31
0.0
  0
LINE
  5
3A4
100
AcDbEntity
  8
0
100
AcDbLine
 62
9
  6
CONTINUOUS
 10
62.6493415159
 20
331.3803923513
 30
0.0
 11
62.4950078676
 21
331.3803923513
 31
0.0
  0
LINE
  5
3A5
100
AcDbEntity
  8
0
100
AcDbLine
 62
9
  6
CONTINUOUS
 10
62.3425389798
 20
331.3803923513
 30
0.0
 11
62.3424746998
 21
331.3803923513
 31
0.0
  0
LINE
  5
3A6
100
AcDbEntity
  8
0
100
AcDbLine
 62
7
  6
CONTINUOUS
 10
139.2331675399
 20
331.4305333345
 30
0.0
 11
136.4864110829
 21
331.4305333345
 31
0.0
  0
LINE
  5
3A7
100
AcDbEntity
  8
0
100
AcDbLine
 62
7
  6
CONTINUOUS
 10
68.841880394
 20
331.4305333345
 30
0.0
 11
66.0951239371
 21
331.4305333345
 31
0.0
  0
LINE
  5
3A8
100
AcDbEntity
  8
0
100
AcDbLine
 62
7
  6
CONTINUOUS
 10
110.2473216833
 20
331.4989891523
 30
0.0
 11
107.9481583316
 21
331.4989891523
 31
0.0
  0
LINE
  5
3A9
100
AcDbEntity
  8
0
100
AcDbLine
 62
7
  6
CONTINUOUS
 10
95.0809697937
 20
331.4989891523
 30
0.0
 11
97.3801331453
 21
331.4989891523
 31
0.0
  0
LINE
  5
3AA
100
AcDbEntity
  8
0
100
AcDbLine
 62
9
  6
CONTINUOUS
 10
139.3831258866
 20
331.5805333345
 30
0.0
 11
139.365587699
 21
331.5805333345
 31
0.0
  0
LINE
  5
3AB
100
AcDbEntity
  8
0
100
AcDbLine
 62
7
  6
CONTINUOUS
 10
95.2134051733
 20
331.742443503
 30
0.0
 11
97.2257070607
 21
331.742443503
 31
0.0
  0
LINE
  5
3AC
100
AcDbEntity
  8
0
100
AcDbLine
 62
7
  6
CONTINUOUS
 10
110.0935846834
 20
331.7434565269
 30
0.0
 11
108.0833079729
 21
331.7434565269
 31
0.0
  0
LINE
  5
3AD
100
AcDbEntity
  8
0
100
AcDbLine
 62
7
  6
CONTINUOUS
 10
95.2140476986
 20
331.743456527
 30
0.0
 11
97.228422937
 21
331.743456527
 31
0.0
  0
LINE
  5
3AE
100
AcDbEntity
  8
0
100
AcDbLine
 62
7
  6
CONTINUOUS
 10
68.4226587832
 20
331.7489891524
 30
0.0
 11
66.3383238722
 21
331.7489891524
 31
0.0
  0
LINE
  5
3AF
100
AcDbEntity
  8
0
100
AcDbLine
 62
7
  6
CONTINUOUS
 10
136.8795693648
 20
331.7489891524
 30
0.0
 11
138.9639042757
 21
331.7489891524
 31
0.0
  0
LINE
  5
3B0
100
AcDbEntity
  8
0
100
AcDbLine
 62
9
  6
CONTINUOUS
 10
66.3782837406
 20
331.9122946355
 30
0.0
 11
68.4154513965
 21
331.9122946355
 31
0.0
  0
LINE
  5
3B1
100
AcDbEntity
  8
0
100
AcDbLine
 62
9
  6
CONTINUOUS
 10
136.9195292332
 20
331.9122946355
 30
0.0
 11
138.9566968891
 21
331.9122946355
 31
0.0
  0
LINE
  5
3B2
100
AcDbEntity
  8
0
100
AcDbLine
 62
9
  6
CONTINUOUS
 10
95.1589173313
 20
332.1094642617
 30
0.0
 11
97.1503441689
 21
332.1094642617
 31
0.0
  0
LINE
  5
3B3
100
AcDbEntity
  8
0
100
AcDbLine
 62
9
  6
CONTINUOUS
 10
108.2004309042
 20
332.1094642617
 30
0.0
 11
110.1918577418
 21
332.1094642617
 31
0.0
  0
LINE
  5
3B4
100
AcDbEntity
  8
0
100
AcDbLine
 62
9
  6
CONTINUOUS
 10
110.1928761083
 20
332.3502995922
 30
0.0
 11
108.1951313331
 21
332.3502995922
 31
0.0
  0
LINE
  5
3B5
100
AcDbEntity
  8
0
100
AcDbLine
 62
9
  6
CONTINUOUS
 10
97.157680473
 20
332.3502995922
 30
0.0
 11
95.1599356978
 21
332.3502995922
 31
0.0
  0
LINE
  5
3B6
100
AcDbEntity
  8
0
100
AcDbLine
 62
9
  6
CONTINUOUS
 10
138.9545607213
 20
332.5545221836
 30
0.0
 11
136.9270966891
 21
332.5545221836
 31
0.0
  0
LINE
  5
3B7
100
AcDbEntity
  8
0
100
AcDbLine
 62
9
  6
CONTINUOUS
 10
68.4133152288
 20
332.5545221836
 30
0.0
 11
66.3858511966
 21
332.5545221836
 31
0.0
  0
LINE
  5
3B8
100
AcDbEntity
  8
0
100
AcDbLine
 62
7
  6
CONTINUOUS
 10
75.2781875862
 20
332.5999210947
 30
0.0
 11
70.9857266332
 21
332.5999210947
 31
0.0
  0
LINE
  5
3B9
100
AcDbEntity
  8
0
100
AcDbLine
 62
9
  6
CONTINUOUS
 10
66.3776942549
 20
332.650942002
 30
0.0
 11
68.4156177986
 21
332.650942002
 31
0.0
  0
LINE
  5
3BA
100
AcDbEntity
  8
0
100
AcDbLine
 62
9
  6
CONTINUOUS
 10
136.9189397475
 20
332.650942002
 30
0.0
 11
138.9568632911
 21
332.650942002
 31
0.0
  0
LINE
  5
3BB
100
AcDbEntity
  8
0
100
AcDbLine
 62
7
  6
CONTINUOUS
 10
110.2025201441
 20
332.7541423576
 30
0.0
 11
108.0307472463
 21
332.7541423576
 31
0.0
  0
LINE
  5
3BC
100
AcDbEntity
  8
0
100
AcDbLine
 62
7
  6
CONTINUOUS
 10
95.1257713329
 20
332.7541423576
 30
0.0
 11
97.2975442306
 21
332.7541423576
 31
0.0
  0
LINE
  5
3BD
100
AcDbEntity
  8
0
100
AcDbLine
 62
9
  6
CONTINUOUS
 10
138.9593277848
 20
332.9026950667
 30
0.0
 11
136.9102091847
 21
332.9026950667
 31
0.0
  0
LINE
  5
3BE
100
AcDbEntity
  8
0
100
AcDbLine
 62
9
  6
CONTINUOUS
 10
68.4180822922
 20
332.9026950667
 30
0.0
 11
66.3689636922
 21
332.9026950667
 31
0.0
  0
LINE
  5
3BF
100
AcDbEntity
  8
0
100
AcDbLine
 62
7
  6
CONTINUOUS
 10
62.3557334028
 20
333.4249210947
 30
0.0
 11
62.4818134446
 21
333.4249210947
 31
0.0
  0
LINE
  5
3C0
100
AcDbEntity
  8
0
100
AcDbLine
 62
7
  6
CONTINUOUS
 10
100.9398874043
 20
333.4263675785
 30
0.0
 11
99.890338853
 21
333.4263675785
 31
0.0
  0
LINE
  5
3C1
100
AcDbEntity
  8
0
100
AcDbLine
 62
7
  6
CONTINUOUS
 10
126.3986813611
 20
333.4263675784
 30
0.0
 11
127.298294405
 21
333.4263675784
 31
0.0
  0
LINE
  5
3C2
100
AcDbEntity
  8
0
100
AcDbLine
 62
7
  6
CONTINUOUS
 10
62.4836883731
 20
333.4749210945
 30
0.0
 11
62.3538584743
 21
333.4749210945
 31
0.0
  0
LINE
  5
3C3
100
AcDbEntity
  8
0
100
AcDbLine
 62
7
  6
CONTINUOUS
 10
97.7049439334
 20
333.7848485215
 30
0.0
 11
97.6549121472
 21
333.7848485215
 31
0.0
  0
LINE
  5
3C4
100
AcDbEntity
  8
0
100
AcDbLine
 62
9
  6
CONTINUOUS
 10
68.8243422065
 20
333.7848485216
 30
0.0
 11
68.841880394
 21
333.7848485216
 31
0.0
  0
LINE
  5
3C5
100
AcDbEntity
  8
0
100
AcDbLine
 62
7
  6
CONTINUOUS
 10
94.7561590056
 20
333.7848485215
 30
0.0
 11
94.8061907918
 21
333.7848485215
 31
0.0
  0
LINE
  5
3C6
100
AcDbEntity
  8
0
100
AcDbLine
 62
7
  6
CONTINUOUS
 10
107.6233475436
 20
333.7848485215
 30
0.0
 11
107.6733793298
 21
333.7848485215
 31
0.0
  0
LINE
  5
3C7
100
AcDbEntity
  8
0
100
AcDbLine
 62
7
  6
CONTINUOUS
 10
110.5221006851
 20
333.7848485215
 30
0.0
 11
110.5721324713
 21
333.7848485215
 31
0.0
  0
LINE
  5
3C8
100
AcDbEntity
  8
0
100
AcDbLine
 62
9
  6
CONTINUOUS
 10
139.365587699
 20
333.7848485215
 30
0.0
 11
139.3831258866
 21
333.7848485215
 31
0.0
  0
LINE
  5
3C9
100
AcDbEntity
  8
0
100
AcDbLine
 62
7
  6
CONTINUOUS
 10
100.9039028006
 20
333.7888625463
 30
0.0
 11
99.9043327518
 21
333.7888625463
 31
0.0
  0
LINE
  5
3CA
100
AcDbEntity
  8
0
100
AcDbLine
 62
7
  6
CONTINUOUS
 10
126.4285019259
 20
333.7888625462
 30
0.0
 11
127.2464831352
 21
333.7888625462
 31
0.0
  0
LINE
  5
3CB
100
AcDbEntity
  8
0
100
AcDbLine
 62
7
  6
CONTINUOUS
 10
127.2517367614
 20
333.8763675784
 30
0.0
 11
126.4276466937
 21
333.8763675784
 31
0.0
  0
LINE
  5
3CC
100
AcDbEntity
  8
0
100
AcDbLine
 62
7
  6
CONTINUOUS
 10
99.9065319487
 20
333.8763675785
 30
0.0
 11
100.9061019975
 21
333.8763675785
 31
0.0
  0
LINE
  5
3CD
100
AcDbEntity
  8
0
100
AcDbLine
 62
7
  6
CONTINUOUS
 10
139.2331675399
 20
333.9348485215
 30
0.0
 11
138.9593277848
 21
333.9348485215
 31
0.0
  0
LINE
  5
3CE
100
AcDbEntity
  8
0
100
AcDbLine
 62
7
  6
CONTINUOUS
 10
136.9102091847
 20
333.9348485216
 30
0.0
 11
136.6363694296
 21
333.9348485216
 31
0.0
  0
LINE
  5
3CF
100
AcDbEntity
  8
0
100
AcDbLine
 62
7
  6
CONTINUOUS
 10
66.0951239371
 20
333.9348485215
 30
0.0
 11
66.3689636922
 21
333.9348485215
 31
0.0
  0
LINE
  5
3D0
100
AcDbEntity
  8
0
100
AcDbLine
 62
7
  6
CONTINUOUS
 10
68.4180822922
 20
333.9348485216
 30
0.0
 11
68.6919220473
 21
333.9348485216
 31
0.0
  0
LINE
  5
3D1
100
AcDbEntity
  8
0
100
AcDbLine
 62
7
  6
CONTINUOUS
 10
100.9061019975
 20
334.0263675785
 30
0.0
 11
99.9065319487
 21
334.0263675785
 31
0.0
  0
LINE
  5
3D2
100
AcDbEntity
  8
0
100
AcDbLine
 62
7
  6
CONTINUOUS
 10
126.4224108304
 20
334.0263675784
 30
0.0
 11
127.2569726247
 21
334.0263675784
 31
0.0
  0
LINE
  5
3D3
100
AcDbEntity
  8
0
100
AcDbLine
 62
7
  6
CONTINUOUS
 10
127.298294405
 20
334.0763675784
 30
0.0
 11
126.3986813611
 21
334.0763675784
 31
0.0
  0
LINE
  5
3D4
100
AcDbEntity
  8
0
100
AcDbLine
 62
7
  6
CONTINUOUS
 10
99.890338853
 20
334.0763675785
 30
0.0
 11
100.9398874043
 21
334.0763675785
 31
0.0
  0
LINE
  5
3D5
100
AcDbEntity
  8
0
100
AcDbLine
 62
7
  6
CONTINUOUS
 10
142.678949961
 20
334.4413675784
 30
0.0
 11
75.2942507369
 21
334.4413675784
 31
0.0
  0
LINE
  5
3D6
100
AcDbEntity
  8
0
100
AcDbLine
 62
7
  6
CONTINUOUS
 10
70.9696634825
 20
334.4413675785
 30
0.0
 11
62.6493415159
 21
334.4413675786
 31
0.0
  0
LINE
  5
3D7
100
AcDbEntity
  8
0
100
AcDbLine
 62
7
  6
CONTINUOUS
 10
62.3424076623
 20
334.4413675786
 30
0.0
 11
62.4951391851
 21
334.4413675786
 31
0.0
  0
LINE
  5
3D8
100
AcDbEntity
  8
0
100
AcDbLine
 62
7
  6
CONTINUOUS
 10
71.2131336411
 20
334.4499210947
 30
0.0
 11
75.0291678866
 21
334.4499210947
 31
0.0
  0
LINE
  5
3D9
100
AcDbEntity
  8
0
100
AcDbLine
 62
7
  6
CONTINUOUS
 10
70.9696634825
 20
334.4913675784
 30
0.0
 11
71.2131336411
 21
334.4913675784
 31
0.0
  0
LINE
  5
3DA
100
AcDbEntity
  8
0
100
AcDbLine
 62
7
  6
CONTINUOUS
 10
75.0291678866
 20
334.4913675784
 30
0.0
 11
75.2836915402
 21
334.4913675784
 31
0.0
  0
LINE
  5
3DB
100
AcDbEntity
  8
0
100
AcDbLine
 62
7
  6
CONTINUOUS
 10
71.4800688362
 20
334.5663675786
 30
0.0
 11
74.7812913025
 21
334.5663675786
 31
0.0
  0
LINE
  5
3DC
100
AcDbEntity
  8
0
100
AcDbLine
 62
7
  6
CONTINUOUS
 10
70.9648474773
 20
334.7163675786
 30
0.0
 11
75.2814740943
 21
334.7163675786
 31
0.0
  0
LINE
  5
3DD
100
AcDbEntity
  8
0
100
AcDbLine
 62
7
  6
CONTINUOUS
 10
62.6442850227
 20
334.7363675786
 30
0.0
 11
62.7176334997
 21
334.7363675786
 31
0.0
  0
LINE
  5
3DE
100
AcDbEntity
  8
0
100
AcDbLine
 62
7
  6
CONTINUOUS
 10
62.4195744865
 20
334.7413675786
 30
0.0
 11
70.9648474773
 21
334.7413675785
 31
0.0
  0
LINE
  5
3DF
100
AcDbEntity
  8
0
100
AcDbLine
 62
7
  6
CONTINUOUS
 10
75.2814740943
 20
334.7413675784
 30
0.0
 11
142.7474518207
 21
334.7413675784
 31
0.0
  0
LINE
  5
3E0
100
AcDbEntity
  8
0
100
AcDbLine
 62
7
  6
CONTINUOUS
 10
68.2612022033
 20
334.9181622245
 30
0.0
 11
136.9058241038
 21
334.9181622244
 31
0.0
  0
LINE
  5
3E1
100
AcDbEntity
  8
0
100
AcDbLine
 62
9
  6
CONTINUOUS
 10
62.6493415159
 20
331.3803923513
 30
0.0
 11
102.6641457385
 21
330.5568610252
 31
0.0
  0
LINE
  5
3E2
100
AcDbEntity
  8
0
100
AcDbLine
 62
7
  6
CONTINUOUS
 10
62.4948054104
 20
331.1246622069
 30
0.0
 11
62.6316793201
 21
331.1158860866
 31
0.0
  0
LINE
  5
3E3
100
AcDbEntity
  8
0
100
AcDbLine
 62
7
  6
CONTINUOUS
 10
64.7731412412
 20
330.9785792213
 30
0.0
 11
65.0326102831
 21
330.9619425114
 31
0.0
  0
LINE
  5
3E4
100
AcDbEntity
  8
0
100
AcDbLine
 62
7
  6
CONTINUOUS
 10
65.0338142518
 20
330.961506222
 30
0.0
 11
99.837634467
 21
328.7327556489
 31
0.0
  0
LINE
  5
3E5
100
AcDbEntity
  8
0
100
AcDbLine
 62
7
  6
CONTINUOUS
 10
65.1611541402
 20
330.9619425114
 30
0.0
 11
62.6221589965
 21
331.1246622069
 31
0.0
  0
LINE
  5
3E6
100
AcDbEntity
  8
0
100
AcDbLine
 62
7
  6
CONTINUOUS
 10
99.9991156735
 20
328.7256582544
 30
0.0
 11
62.6322420299
 21
331.1246622069
 31
0.0
  0
LINE
  5
3E7
100
AcDbEntity
  8
0
100
AcDbLine
 62
9
  6
CONTINUOUS
 10
110.7294924005
 20
332.0054586492
 30
0.0
 11
110.747030588
 21
331.9989129999
 31
0.0
  0
ARC
  5
3E8
100
AcDbEntity
  8
0
100
AcDbCircle
 62
7
  6
CONTINUOUS
 10
224.8941419969
 20
324.6130624869
 30
0.0
 40
14.3797435695
100
AcDbArc
 50
135.4595839833
 51
135.6071675808
  0
ARC
  5
3E9
100
AcDbEntity
  8
0
100
AcDbCircle
 62
7
  6
CONTINUOUS
 10
208.1586170633
 20
332.7804594558
 30
0.0
 40
7.2517447507
100
AcDbArc
 50
359.9562415998
 51
0.9465135913
  0
ARC
  5
3EA
100
AcDbEntity
  8
0
100
AcDbCircle
 62
7
  6
CONTINUOUS
 10
210.4531928391
 20
331.2743826065
 30
0.0
 40
4.9754924474
100
AcDbArc
 50
359.6973495553
 51
359.9996829148
  0
ARC
  5
3EB
100
AcDbEntity
  8
0
100
AcDbCircle
 62
7
  6
CONTINUOUS
 10
211.1605832064
 20
331.2691472252
 30
0.0
 40
4.2680845576
100
AcDbArc
 50
359.0972879607
 51
359.7174686631
  0
ARC
  5
3EC
100
AcDbEntity
  8
0
100
AcDbCircle
 62
7
  6
CONTINUOUS
 10
216.1347503617
 20
333.5260097643
 30
0.0
 40
3.2095207778
100
AcDbArc
 50
179.9936123676
 51
180.6188198256
  0
ARC
  5
3ED
100
AcDbEntity
  8
0
100
AcDbCircle
 62
7
  6
CONTINUOUS
 10
216.9079360609
 20
333.5260097644
 30
0.0
 40
3.2095207759
100
AcDbArc
 50
179.9936123674
 51
180.6188198257
  0
ARC
  5
3EE
100
AcDbEntity
  8
0
100
AcDbCircle
 62
7
  6
CONTINUOUS
 10
215.5482403582
 20
330.6237148328
 30
0.0
 40
1.8986489489
100
AcDbArc
 50
182.0178732781
 51
187.9231642617
  0
ARC
  5
3EF
100
AcDbEntity
  8
ALL_AXES
100
AcDbCircle
 62
7
  6
CONTINUOUS
 10
216.5712626001
 20
297.6870391318
 30
0.0
 40
0.7498407567
100
AcDbArc
 50
359.9864276002
 51
89.9861263718
  0
ARC
  5
3F0
100
AcDbEntity
  8
ALL_AXES
100
AcDbCircle
 62
7
  6
CONTINUOUS
 10
216.5712626001
 20
297.6866838739
 30
0.0
 40
0.7498407567
100
AcDbArc
 50
270.0138736282
 51
0.0135724001
  0
ARC
  5
3F1
100
AcDbEntity
  8
0
100
AcDbCircle
 62
9
  6
CONTINUOUS
 10
220.0657138922
 20
331.3812235272
 30
0.0
 40
0.2569438047
100
AcDbArc
 50
300.0378130381
 51
318.3455853894
  0
ARC
  5
3F2
100
AcDbEntity
  8
0
100
AcDbCircle
 62
9
  6
CONTINUOUS
 10
220.0668582239
 20
331.3800243916
 30
0.0
 40
0.2553625095
100
AcDbArc
 50
269.9099476988
 51
277.4197578598
  0
ARC
  5
3F3
100
AcDbEntity
  8
0
100
AcDbCircle
 62
7
  6
CONTINUOUS
 10
213.4993297677
 20
332.2425142854
 30
0.0
 40
0.1503290076
100
AcDbArc
 50
180.0414918342
 51
188.2300857919
  0
ARC
  5
3F4
100
AcDbEntity
  8
0
100
AcDbCircle
 62
9
  6
CONTINUOUS
 10
213.1753768658
 20
332.2423173033
 30
0.0
 40
0.1503009997
100
AcDbArc
 50
179.9664086063
 51
188.1557646737
  0
ARC
  5
3F5
100
AcDbEntity
  8
ALL_AXES
100
AcDbCircle
 62
7
  6
CONTINUOUS
 10
100.7907160822
 20
297.3792198671
 30
0.0
 40
7.6703209852
100
AcDbArc
 50
358.0636787665
 51
358.1856769798
  0
ARC
  5
3F6
100
AcDbEntity
  8
ALL_AXES
100
AcDbCircle
 62
7
  6
CONTINUOUS
 10
100.7923603065
 20
297.99455723
 30
0.0
 40
7.6686758721
100
AcDbArc
 50
1.8147247293
 51
1.9363324092
  0
ARC
  5
3F7
100
AcDbEntity
  8
0
100
AcDbCircle
 62
7
  6
CONTINUOUS
 10
115.5934909288
 20
326.9370846332
 30
0.0
 40
7.1773447276
100
AcDbArc
 50
180.0017812195
 51
180.553751299
  0
ARC
  5
3F8
100
AcDbEntity
  8
0
100
AcDbCircle
 62
7
  6
CONTINUOUS
 10
115.5922921177
 20
326.9366282154
 30
0.0
 40
7.1761459168
100
AcDbArc
 50
179.4377158159
 51
179.9981373864
  0
ARC
  5
3F9
100
AcDbEntity
  8
ALL_AXES
100
AcDbCircle
 62
7
  6
CONTINUOUS
 10
101.7567577605
 20
298.0271182641
 30
0.0
 40
6.7037288952
100
AcDbArc
 50
1.9367044486
 51
2.1309296188
  0
ARC
  5
3FA
100
AcDbEntity
  8
ALL_AXES
100
AcDbCircle
 62
7
  6
CONTINUOUS
 10
101.7567577687
 20
297.3466047413
 30
0.0
 40
6.703728887
100
AcDbArc
 50
357.869070381
 51
358.0632955515
  0
ARC
  5
3FB
100
AcDbEntity
  8
0
100
AcDbCircle
 62
9
  6
CONTINUOUS
 10
91.6314871242
 20
332.3648752205
 30
0.0
 40
5.5262125941
100
AcDbArc
 50
358.7301289984
 51
359.8488796882
  0
ARC
  5
3FC
100
AcDbEntity
  8
0
100
AcDbCircle
 62
9
  6
CONTINUOUS
 10
102.8398750299
 20
332.1232457559
 30
0.0
 40
5.3606042554
100
AcDbArc
 50
1.0448306037
 51
1.2737199016
  0
ARC
  5
3FD
100
AcDbEntity
  8
ALL_AXES
100
AcDbCircle
 62
7
  6
CONTINUOUS
 10
103.1181257798
 20
298.0777993862
 30
0.0
 40
5.3414178224
100
AcDbArc
 50
2.1306496144
 51
2.4916972134
  0
ARC
  5
3FE
100
AcDbEntity
  8
ALL_AXES
100
AcDbCircle
 62
7
  6
CONTINUOUS
 10
103.1210376459
 20
297.2958115675
 30
0.0
 40
5.3385038035
100
AcDbArc
 50
357.5067319292
 51
357.8693902709
  0
ARC
  5
3FF
100
AcDbEntity
  8
0
100
AcDbCircle
 62
9
  6
CONTINUOUS
 10
92.3494421397
 20
332.3491726559
 30
0.0
 40
4.8080858941
100
AcDbArc
 50
358.4723827284
 51
358.7275986986
  0
ARC
  5
400
100
AcDbEntity
  8
0
100
AcDbCircle
 62
7
  6
CONTINUOUS
 10
99.8319818544
 20
297.013495508
 30
0.0
 40
3.1245805225
100
AcDbArc
 50
177.7521004958
 51
177.9385204873
  0
ARC
  5
401
100
AcDbEntity
  8
0
100
AcDbCircle
 62
7
  6
CONTINUOUS
 10
97.2218328588
 20
331.999034098
 30
0.0
 40
0.256488115
100
AcDbArc
 50
300.3344522561
 51
302.4701415552
  0
ARC
  5
402
100
AcDbEntity
  8
0
100
AcDbCircle
 62
7
  6
CONTINUOUS
 10
74.7837156713
 20
334.8068181213
 30
0.0
 40
0.2399867892
100
AcDbArc
 50
314.5241550803
 51
337.8583300396
  0
ARC
  5
403
100
AcDbEntity
  8
0
100
AcDbCircle
 62
9
  6
CONTINUOUS
 10
62.4959542382
 20
331.2743758059
 30
0.0
 40
0.1503038702
100
AcDbArc
 50
180.0079040576
 51
189.9250412164
  0
ARC
  5
404
100
AcDbEntity
  8
0
100
AcDbCircle
 62
7
  6
CONTINUOUS
 10
62.5058012923
 20
331.2743913327
 30
0.0
 40
0.1500984974
100
AcDbArc
 50
218.3209731651
 51
227.9983062549
  0
SPLINE
  5
405
100
AcDbEntity
  8
0
100
AcDbSpline
 62
7
  6
CONTINUOUS
 70
0
 71
3
 72
13
 73
9
 74
0
 42
0.0000001
 43
0.0000001
 44
0.0000000001
 40
0.0
 40
0.0
 40
0.0
 40
0.0
 40
0.3816730856
 40
0.7062709022
 40
0.8304582533
 40
0.9226697138
 40
0.9797650826
 40
1.0
 40
1.0
 40
1.0
 40
1.0
 10
212.9574826377
 20
333.5263675784
 30
0.0
 10
212.9574826377
 20
333.5136277106
 30
0.0
 10
212.9573071001
 20
333.4901380099
 30
0.0
 10
212.9569632042
 20
333.4621510894
 30
0.0
 10
212.9561488812
 20
333.4445031752
 30
0.0
 10
212.9560408083
 20
333.4346707372
 30
0.0
 10
212.9549146773
 20
333.4303460437
 30
0.0
 10
212.9552259651
 20
333.4263675784
 30
0.0
 10
212.9545505437
 20
333.4263675784
 30
0.0
  0
SPLINE
  5
406
100
AcDbEntity
  8
0
100
AcDbSpline
 62
7
  6
CONTINUOUS
 70
0
 71
3
 72
13
 73
9
 74
0
 42
0.0000001
 43
0.0000001
 44
0.0000000001
 40
0.0
 40
0.0
 40
0.0
 40
0.0
 40
0.0202342398
 40
0.0773282991
 40
0.1695388777
 40
0.2937251702
 40
0.6183247867
 40
1.0
 40
1.0
 40
1.0
 40
1.0
 10
212.9545505437
 20
334.0763675784
 30
0.0
 10
212.9552259425
 20
334.0763675784
 30
0.0
 10
212.9549147032
 20
334.0723892294
 30
0.0
 10
212.9560407923
 20
334.0680645998
 30
0.0
 10
212.9561488716
 20
334.0582322786
 30
0.0
 10
212.9569631978
 20
334.0405843683
 30
0.0
 10
212.9573070925
 20
334.0125973491
 30
0.0
 10
212.9574826377
 20
333.9891075176
 30
0.0
 10
212.9574826377
 20
333.9763675784
 30
0.0
  0
SPLINE
  5
407
100
AcDbEntity
  8
0
100
AcDbSpline
 62
7
  6
CONTINUOUS
 70
0
 71
3
 72
13
 73
9
 74
0
 42
0.0000001
 43
0.0000001
 44
0.0000000001
 40
0.0
 40
0.0
 40
0.0
 40
0.0
 40
0.3816730856
 40
0.7062709022
 40
0.8304582533
 40
0.9226697138
 40
0.9797650826
 40
1.0
 40
1.0
 40
1.0
 40
1.0
 10
213.7350664799
 20
333.5263675785
 30
0.0
 10
213.7350664799
 20
333.5136277106
 30
0.0
 10
213.7348909423
 20
333.4901380099
 30
0.0
 10
213.7345470464
 20
333.4621510895
 30
0.0
 10
213.7337327234
 20
333.4445031753
 30
0.0
 10
213.7336246505
 20
333.4346707373
 30
0.0
 10
213.7324985195
 20
333.4303460438
 30
0.0
 10
213.7328098073
 20
333.4263675785
 30
0.0
 10
213.7321343859
 20
333.4263675785
 30
0.0
  0
SPLINE
  5
408
100
AcDbEntity
  8
0
100
AcDbSpline
 62
7
  6
CONTINUOUS
 70
0
 71
3
 72
13
 73
9
 74
0
 42
0.0000001
 43
0.0000001
 44
0.0000000001
 40
0.0
 40
0.0
 40
0.0
 40
0.0
 40
0.0202342398
 40
0.0773282991
 40
0.1695388777
 40
0.2937251702
 40
0.6183247867
 40
1.0
 40
1.0
 40
1.0
 40
1.0
 10
213.7321343859
 20
334.0763675785
 30
0.0
 10
213.7328097847
 20
334.0763675785
 30
0.0
 10
213.7324985454
 20
334.0723892294
 30
0.0
 10
213.7336246345
 20
334.0680645999
 30
0.0
 10
213.7337327138
 20
334.0582322786
 30
0.0
 10
213.73454704
 20
334.0405843683
 30
0.0
 10
213.7348909347
 20
334.0125973491
 30
0.0
 10
213.7350664799
 20
333.9891075177
 30
0.0
 10
213.7350664799
 20
333.9763675785
 30
0.0
  0
SPLINE
  5
409
100
AcDbEntity
  8
0
100
AcDbSpline
 62
7
  6
CONTINUOUS
 70
0
 71
3
 72
9
 73
5
 74
0
 42
0.0000001
 43
0.0000001
 44
0.0000000001
 40
0.0
 40
0.0
 40
0.0
 40
0.0
 40
0.2069505965
 40
1.0
 40
1.0
 40
1.0
 40
1.0
 10
215.4058065681
 20
333.0062849948
 30
0.0
 10
215.405960251
 20
333.004139309
 30
0.0
 10
215.4066296808
 20
332.9937659822
 30
0.0
 10
215.4070934012
 20
332.9833805079
 30
0.0
 10
215.4074169151
 20
332.9751433745
 30
0.0
  0
SPLINE
  5
40A
100
AcDbEntity
  8
0
100
AcDbSpline
 62
7
  6
CONTINUOUS
 70
0
 71
3
 72
9
 73
5
 74
0
 42
0.0000001
 43
0.0000001
 44
0.0000000001
 40
0.0
 40
0.0
 40
0.0
 40
0.0
 40
0.215188648
 40
1.0
 40
1.0
 40
1.0
 40
1.0
 10
215.4074169151
 20
332.9751433745
 30
0.0
 10
215.4076278118
 20
332.9697736396
 30
0.0
 10
215.4084997925
 20
332.9448157876
 30
0.0
 10
215.4090394872
 20
332.9198473779
 30
0.0
 10
215.4093723247
 20
332.9002512247
 30
0.0
  0
SPLINE
  5
40B
100
AcDbEntity
  8
0
100
AcDbSpline
 62
7
  6
CONTINUOUS
 70
0
 71
3
 72
9
 73
5
 74
0
 42
0.0000001
 43
0.0000001
 44
0.0000000001
 40
0.0
 40
0.0
 40
0.0
 40
0.0
 40
0.2662140748
 40
1.0
 40
1.0
 40
1.0
 40
1.0
 10
215.410359699
 20
332.3749210947
 30
0.0
 10
215.410359699
 20
332.3615749615
 30
0.0
 10
215.4102342963
 20
332.3114422129
 30
0.0
 10
215.4096974764
 20
332.2613085476
 30
0.0
 10
215.4088854409
 20
332.2245305579
 30
0.0
  0
SPLINE
  5
40C
100
AcDbEntity
  8
0
100
AcDbSpline
 62
7
  6
CONTINUOUS
 70
0
 71
3
 72
9
 73
5
 74
0
 42
0.0000001
 43
0.0000001
 44
0.0000000001
 40
0.0
 40
0.0
 40
0.0
 40
0.0
 40
0.2995153563
 40
1.0
 40
1.0
 40
1.0
 40
1.0
 10
215.4088854409
 20
332.2245305579
 30
0.0
 10
215.4087249744
 20
332.2172628537
 30
0.0
 10
215.4081186605
 20
332.1930003888
 30
0.0
 10
215.4073146275
 20
332.1687374853
 30
0.0
 10
215.4063313664
 20
332.1517646237
 30
0.0
  0
LINE
  5
40D
100
AcDbEntity
  8
0
100
AcDbLine
 62
7
  6
CONTINUOUS
 10
215.4063313664
 20
332.1517646237
 30
0.0
 11
215.4053621386
 21
332.137917411
 31
0.0
  0
SPLINE
  5
40E
100
AcDbEntity
  8
0
100
AcDbSpline
 62
7
  6
CONTINUOUS
 70
0
 71
3
 72
9
 73
5
 74
0
 42
0.0000001
 43
0.0000001
 44
0.0000000001
 40
0.0
 40
0.0
 40
0.0
 40
0.0
 40
0.5000246327
 40
1.0
 40
1.0
 40
1.0
 40
1.0
 10
213.0123269671
 20
332.3502995922
 30
0.0
 10
212.9795667496
 20
332.3186456769
 30
0.0
 10
212.9430517908
 20
332.2173920523
 30
0.0
 10
213.0066777648
 20
332.1305683045
 30
0.0
 10
213.0470437489
 20
332.1094642617
 30
0.0
  0
SPLINE
  5
40F
100
AcDbEntity
  8
0
100
AcDbSpline
 62
7
  6
CONTINUOUS
 70
0
 71
3
 72
11
 73
7
 74
0
 42
0.0000001
 43
0.0000001
 44
0.0000000001
 40
0.0
 40
0.0
 40
0.0
 40
0.0
 40
0.3678692403
 40
0.6850610891
 40
0.9056161769
 40
1.0
 40
1.0
 40
1.0
 40
1.0
 10
219.7268364964
 20
331.2743550712
 30
0.0
 10
219.7268364964
 20
331.2559838243
 30
0.0
 10
219.7264358737
 20
331.2218510157
 30
0.0
 10
219.7264610692
 20
331.1763447912
 30
0.0
 10
219.7237174212
 20
331.1453922832
 30
0.0
 10
219.7246805513
 20
331.1289484545
 30
0.0
 10
219.7227196628
 20
331.1246622069
 30
0.0
  0
SPLINE
  5
410
100
AcDbEntity
  8
0
100
AcDbSpline
 62
7
  6
CONTINUOUS
 70
0
 71
3
 72
8
 73
4
 74
0
 42
0.0000001
 43
0.0000001
 44
0.0000000001
 40
0.0
 40
0.0
 40
0.0
 40
0.0
 40
1.0
 40
1.0
 40
1.0
 40
1.0
 10
213.3505489712
 20
332.2209948947
 30
0.0
 10
213.3535395943
 20
332.2003430292
 30
0.0
 10
213.3610892543
 20
332.1799083415
 30
0.0
 10
213.372243265
 20
332.1622722586
 30
0.0
  0
SPLINE
  5
411
100
AcDbEntity
  8
0
100
AcDbSpline
 62
7
  6
CONTINUOUS
 70
0
 71
3
 72
8
 73
4
 74
0
 42
0.0000001
 43
0.0000001
 44
0.0000000001
 40
0.0
 40
0.0
 40
0.0
 40
0.0
 40
1.0
 40
1.0
 40
1.0
 40
1.0
 10
213.372243265
 20
332.1622722586
 30
0.0
 10
213.3861342124
 20
332.1403086879
 30
0.0
 10
213.4065639794
 20
332.121497805
 30
0.0
 10
213.4295976661
 20
332.109464263
 30
0.0
  0
SPLINE
  5
412
100
AcDbEntity
  8
0
100
AcDbSpline
 62
7
  6
CONTINUOUS
 70
0
 71
3
 72
8
 73
4
 74
0
 42
0.0000001
 43
0.0000001
 44
0.0000000001
 40
0.0
 40
0.0
 40
0.0
 40
0.0
 40
1.0
 40
1.0
 40
1.0
 40
1.0
 10
212.4769924335
 20
331.3803923531
 30
0.0
 10
212.4769722231
 20
331.3232368452
 30
0.0
 10
212.4982958176
 20
331.2631433178
 30
0.0
 10
212.5343709038
 20
331.2188111553
 30
0.0
  0
SPLINE
  5
413
100
AcDbEntity
  8
0
100
AcDbSpline
 62
7
  6
CONTINUOUS
 70
0
 71
3
 72
8
 73
4
 74
0
 42
0.0000001
 43
0.0000001
 44
0.0000000001
 40
0.0
 40
0.0
 40
0.0
 40
0.0
 40
1.0
 40
1.0
 40
1.0
 40
1.0
 10
220.3221803802
 20
331.3803923475
 30
0.0
 10
220.3222005916
 20
331.3232368615
 30
0.0
 10
220.3008759733
 20
331.2631441272
 30
0.0
 10
220.264801782
 20
331.2188112646
 30
0.0
  0
SPLINE
  5
414
100
AcDbEntity
  8
0
100
AcDbSpline
 62
7
  6
CONTINUOUS
 70
0
 71
3
 72
9
 73
5
 74
0
 42
0.0000001
 43
0.0000001
 44
0.0000000001
 40
0.0
 40
0.0
 40
0.0
 40
0.0
 40
0.6581989809
 40
1.0
 40
1.0
 40
1.0
 40
1.0
 10
214.6189495495
 20
334.6727565824
 30
0.0
 10
214.5966730875
 20
334.6500006838
 30
0.0
 10
214.5641521069
 20
334.614413342
 30
0.0
 10
214.5284494421
 20
334.5810901371
 30
0.0
 10
214.5190429578
 20
334.5674893081
 30
0.0
  0
SPLINE
  5
415
100
AcDbEntity
  8
0
100
AcDbSpline
 62
7
  6
CONTINUOUS
 70
0
 71
3
 72
9
 73
5
 74
0
 42
0.0000001
 43
0.0000001
 44
0.0000000001
 40
0.0
 40
0.0
 40
0.0
 40
0.0
 40
0.7707086292
 40
1.0
 40
1.0
 40
1.0
 40
1.0
 10
214.5190429578
 20
334.5674893081
 30
0.0
 10
214.5188583348
 20
334.5672223618
 30
0.0
 10
214.5185630926
 20
334.5670423837
 30
0.0
 10
214.5185108728
 20
334.5663675786
 30
0.0
 10
214.5186074349
 20
334.5663675786
 30
0.0
  0
SPLINE
  5
416
100
AcDbEntity
  8
0
100
AcDbSpline
 62
7
  6
CONTINUOUS
 70
0
 71
3
 72
12
 73
8
 74
0
 42
0.0000001
 43
0.0000001
 44
0.0000000001
 40
0.0
 40
0.0
 40
0.0
 40
0.0
 40
0.0277888238
 40
0.0947085342
 40
0.316758579
 40
0.6326320675
 40
1.0
 40
1.0
 40
1.0
 40
1.0
 10
214.8247394506
 20
334.4416273753
 30
0.0
 10
214.8261369659
 20
334.4416273753
 30
0.0
 10
214.8304344531
 20
334.4442677359
 30
0.0
 10
214.8458862316
 20
334.4478085277
 30
0.0
 10
214.8764619479
 20
334.4507925794
 30
0.0
 10
214.9217927461
 20
334.4457745013
 30
0.0
 10
214.9559899452
 20
334.4416273753
 30
0.0
 10
214.974465082
 20
334.4416273753
 30
0.0
  0
SPLINE
  5
417
100
AcDbEntity
  8
0
100
AcDbSpline
 62
9
  6
CONTINUOUS
 70
0
 71
3
 72
9
 73
5
 74
0
 42
0.0000001
 43
0.0000001
 44
0.0000000001
 40
0.0
 40
0.0
 40
0.0
 40
0.0
 40
0.4997083077
 40
1.0
 40
1.0
 40
1.0
 40
1.0
 10
220.070562989
 20
331.2743540611
 30
0.0
 10
220.0976024932
 20
331.274351467
 30
0.0
 10
220.1539635296
 20
331.296948892
 30
0.0
 10
220.1766403311
 20
331.3533073279
 30
0.0
 10
220.1766440614
 20
331.3803783992
 30
0.0
  0
SPLINE
  5
418
100
AcDbEntity
  8
0
100
AcDbSpline
 62
7
  6
CONTINUOUS
 70
0
 71
3
 72
11
 73
7
 74
0
 42
0.0000001
 43
0.0000001
 44
0.0000000001
 40
0.0
 40
0.0
 40
0.0
 40
0.0
 40
0.0899612404
 40
0.3063569272
 40
0.6253738181
 40
1.0
 40
1.0
 40
1.0
 40
1.0
 10
220.3221716817
 20
334.4414193642
 30
0.0
 10
220.3191881927
 20
334.4446635021
 30
0.0
 10
220.3032610137
 20
334.4480569355
 30
0.0
 10
220.2735593653
 20
334.4506270638
 30
0.0
 10
220.2286903989
 20
334.445128387
 30
0.0
 10
220.1949970017
 20
334.4412654368
 30
0.0
 10
220.1766430183
 20
334.4412654368
 30
0.0
  0
SPLINE
  5
419
100
AcDbEntity
  8
0
100
AcDbSpline
 62
7
  6
CONTINUOUS
 70
0
 71
3
 72
11
 73
7
 74
0
 42
0.0000001
 43
0.0000001
 44
0.0000000001
 40
0.0
 40
0.0
 40
0.0
 40
0.0
 40
0.0717250633
 40
0.2753242329
 40
0.5939963398
 40
1.0
 40
1.0
 40
1.0
 40
1.0
 10
212.9281616977
 20
333.4263675784
 30
0.0
 10
212.9266053018
 20
333.4263675784
 30
0.0
 10
212.9283065575
 20
333.4358193623
 30
0.0
 10
212.9255355357
 20
333.4454765525
 30
0.0
 10
212.92610001
 20
333.4673369954
 30
0.0
 10
212.9255129102
 20
333.4825366501
 30
0.0
 10
212.9254167766
 20
333.4913461906
 30
0.0
  0
SPLINE
  5
41A
100
AcDbEntity
  8
0
100
AcDbSpline
 62
9
  6
CONTINUOUS
 70
0
 71
3
 72
8
 73
4
 74
0
 42
0.0000001
 43
0.0000001
 44
0.0000000001
 40
0.0
 40
0.0
 40
0.0
 40
0.0
 40
1.0
 40
1.0
 40
1.0
 40
1.0
 10
213.3946955544
 20
332.3502995919
 30
0.0
 10
213.366620106
 20
332.3231475805
 30
0.0
 10
213.3489730383
 20
332.2814625814
 30
0.0
 10
213.3490007988
 20
332.2424054213
 30
0.0
  0
SPLINE
  5
41B
100
AcDbEntity
  8
0
100
AcDbSpline
 62
9
  6
CONTINUOUS
 70
0
 71
3
 72
11
 73
7
 74
0
 42
0.0000001
 43
0.0000001
 44
0.0000000001
 40
0.0
 40
0.0
 40
0.0
 40
0.0
 40
0.3553697402
 40
0.6850017167
 40
0.9116162859
 40
1.0
 40
1.0
 40
1.0
 40
1.0
 10
220.070573709
 20
331.2743550712
 30
0.0
 10
220.0705737089
 20
331.2566078999
 30
0.0
 10
220.0701922474
 20
331.222475958
 30
0.0
 10
220.0702256926
 20
331.1766608421
 30
0.0
 10
220.0674573992
 20
331.1451006218
 30
0.0
 10
220.0682931223
 20
331.1286760046
 30
0.0
 10
220.0664568755
 20
331.1246622069
 30
0.0
  0
SPLINE
  5
41C
100
AcDbEntity
  8
0
100
AcDbSpline
 62
7
  6
CONTINUOUS
 70
0
 71
3
 72
13
 73
9
 74
0
 42
0.0000001
 43
0.0000001
 44
0.0000000001
 40
0.0
 40
0.0
 40
0.0
 40
0.0
 40
0.3816730856
 40
0.7062709022
 40
0.8304582533
 40
0.9226697138
 40
0.9797650826
 40
1.0
 40
1.0
 40
1.0
 40
1.0
 10
212.9252296038
 20
333.9763675784
 30
0.0
 10
212.9252296038
 20
333.9891074463
 30
0.0
 10
212.9254051413
 20
334.012597147
 30
0.0
 10
212.9257490373
 20
334.0405840675
 30
0.0
 10
212.9265633602
 20
334.0582319817
 30
0.0
 10
212.9266714332
 20
334.0680644196
 30
0.0
 10
212.9277975642
 20
334.0723891132
 30
0.0
 10
212.9274862763
 20
334.0763675784
 30
0.0
 10
212.9281616977
 20
334.0763675784
 30
0.0
  0
SPLINE
  5
41D
100
AcDbEntity
  8
0
100
AcDbSpline
 62
7
  6
CONTINUOUS
 70
0
 71
3
 72
13
 73
9
 74
0
 42
0.0000001
 43
0.0000001
 44
0.0000000001
 40
0.0
 40
0.0
 40
0.0
 40
0.0
 40
0.3816730856
 40
0.7062709022
 40
0.8304582533
 40
0.9226697138
 40
0.9797650826
 40
1.0
 40
1.0
 40
1.0
 40
1.0
 10
213.698415305
 20
333.9763675785
 30
0.0
 10
213.698415305
 20
333.9891074464
 30
0.0
 10
213.6985908426
 20
334.012597147
 30
0.0
 10
213.6989347385
 20
334.0405840675
 30
0.0
 10
213.6997490615
 20
334.0582319817
 30
0.0
 10
213.6998571344
 20
334.0680644197
 30
0.0
 10
213.7009832654
 20
334.0723891132
 30
0.0
 10
213.7006719776
 20
334.0763675785
 30
0.0
 10
213.701347399
 20
334.0763675785
 30
0.0
  0
SPLINE
  5
41E
100
AcDbEntity
  8
0
100
AcDbSpline
 62
7
  6
CONTINUOUS
 70
0
 71
3
 72
11
 73
7
 74
0
 42
0.0000001
 43
0.0000001
 44
0.0000000001
 40
0.0
 40
0.0
 40
0.0
 40
0.0
 40
0.0717250633
 40
0.2753242329
 40
0.5939963398
 40
1.0
 40
1.0
 40
1.0
 40
1.0
 10
213.701347399
 20
333.4263675785
 30
0.0
 10
213.699791003
 20
333.4263675785
 30
0.0
 10
213.7014922587
 20
333.4358193624
 30
0.0
 10
213.6987212369
 20
333.4454765525
 30
0.0
 10
213.6992857112
 20
333.4673369954
 30
0.0
 10
213.6986986114
 20
333.4825366502
 30
0.0
 10
213.6986024778
 20
333.4913461907
 30
0.0
  0
SPLINE
  5
41F
100
AcDbEntity
  8
0
100
AcDbSpline
 62
7
  6
CONTINUOUS
 70
0
 71
3
 72
16
 73
12
 74
0
 42
0.0000001
 43
0.0000001
 44
0.0000000001
 40
0.0
 40
0.0
 40
0.0
 40
0.0
 40
0.3295854934
 40
0.4885050294
 40
0.6380607341
 40
0.7726442609
 40
0.8853005348
 40
0.9308418236
 40
0.9670497441
 40
0.9910431768
 40
1.0
 40
1.0
 40
1.0
 40
1.0
 10
213.8761401242
 20
332.5531867046
 30
0.0
 10
213.8761401242
 20
332.5752790371
 30
0.0
 10
213.8760351559
 20
332.6080272298
 30
0.0
 10
213.8756398451
 20
332.650787029
 30
0.0
 10
213.875237811
 20
332.6805047109
 30
0.0
 10
213.8746545266
 20
332.7070274299
 30
0.0
 10
213.8741581852
 20
332.7268181903
 30
0.0
 10
213.8734358398
 20
332.739562093
 30
0.0
 10
213.8733066824
 20
332.7471838165
 30
0.0
 10
213.8723379492
 20
332.7507153402
 30
0.0
 10
213.8726531804
 20
332.7541423576
 30
0.0
 10
213.8720527986
 20
332.7541423576
 30
0.0
  0
SPLINE
  5
420
100
AcDbEntity
  8
0
100
AcDbSpline
 62
9
  6
CONTINUOUS
 70
0
 71
3
 72
13
 73
9
 74
0
 42
0.0000001
 43
0.0000001
 44
0.0000000001
 40
0.0
 40
0.0
 40
0.0
 40
0.0
 40
0.021862317
 40
0.08022552
 40
0.1733212874
 40
0.297432365
 40
0.6198748497
 40
1.0
 40
1.0
 40
1.0
 40
1.0
 10
213.4880132875
 20
332.1094642617
 30
0.0
 10
213.4874920118
 20
332.110412457
 30
0.0
 10
213.4904746264
 20
332.1144376395
 30
0.0
 10
213.4926499317
 20
332.121959753
 30
0.0
 10
213.4992612683
 20
332.1344200108
 30
0.0
 10
213.5106577918
 20
332.1582968425
 30
0.0
 10
213.5294174326
 20
332.194853951
 30
0.0
 10
213.5453000682
 20
332.225725547
 30
0.0
 10
213.5540025938
 20
332.2424054217
 30
0.0
  0
SPLINE
  5
421
100
AcDbEntity
  8
0
100
AcDbSpline
 62
9
  6
CONTINUOUS
 70
0
 71
3
 72
9
 73
5
 74
0
 42
0.0000001
 43
0.0000001
 44
0.0000000001
 40
0.0
 40
0.0
 40
0.0
 40
0.0
 40
0.499989071
 40
1.0
 40
1.0
 40
1.0
 40
1.0
 10
213.4075219911
 20
332.2424054217
 30
0.0
 10
213.4075219911
 20
332.2155132485
 30
0.0
 10
213.4225561719
 20
332.1606727291
 30
0.0
 10
213.4641806004
 20
332.1219244075
 30
0.0
 10
213.4880132875
 20
332.1094642617
 30
0.0
  0
SPLINE
  5
422
100
AcDbEntity
  8
0
100
AcDbSpline
 62
9
  6
CONTINUOUS
 70
0
 71
3
 72
8
 73
4
 74
0
 42
0.0000001
 43
0.0000001
 44
0.0000000001
 40
0.0
 40
0.0
 40
0.0
 40
0.0
 40
1.0
 40
1.0
 40
1.0
 40
1.0
 10
213.4532965056
 20
332.3502995922
 30
0.0
 10
213.4252012689
 20
332.3231531227
 30
0.0
 10
213.4075219911
 20
332.2814729675
 30
0.0
 10
213.4075219911
 20
332.2424054217
 30
0.0
  0
SPLINE
  5
423
100
AcDbEntity
  8
0
100
AcDbSpline
 62
9
  6
CONTINUOUS
 70
0
 71
3
 72
13
 73
9
 74
0
 42
0.0000001
 43
0.0000001
 44
0.0000000001
 40
0.0
 40
0.0
 40
0.0
 40
0.0
 40
0.3785831614
 40
0.7007561552
 40
0.8248443295
 40
0.917970452
 40
0.977030445
 40
1.0
 40
1.0
 40
1.0
 40
1.0
 10
213.5540025938
 20
332.2424054217
 30
0.0
 10
213.5410713065
 20
332.2558163453
 30
0.0
 10
213.5172666899
 20
332.2807292565
 30
0.0
 10
213.489202054
 20
332.3101706583
 30
0.0
 10
213.4713982457
 20
332.3296932426
 30
0.0
 10
213.4617729361
 20
332.3396118236
 30
0.0
 10
213.4569651492
 20
332.3463274179
 30
0.0
 10
213.4533918804
 20
332.3491733056
 30
0.0
 10
213.4532965056
 20
332.3502995922
 30
0.0
  0
SPLINE
  5
424
100
AcDbEntity
  8
0
100
AcDbSpline
 62
7
  6
CONTINUOUS
 70
0
 71
3
 72
8
 73
4
 74
0
 42
0.0000001
 43
0.0000001
 44
0.0000000001
 40
0.0
 40
0.0
 40
0.0
 40
0.0
 40
1.0
 40
1.0
 40
1.0
 40
1.0
 10
213.8764205328
 20
332.0754651848
 30
0.0
 10
213.8764205328
 20
332.0678312087
 30
0.0
 10
213.8825574112
 20
332.0611183851
 30
0.0
 10
213.8878557251
 20
332.0556224356
 30
0.0
  0
SPLINE
  5
425
100
AcDbEntity
  8
0
100
AcDbSpline
 62
9
  6
CONTINUOUS
 70
0
 71
3
 72
8
 73
4
 74
0
 42
0.0000001
 43
0.0000001
 44
0.0000000001
 40
0.0
 40
0.0
 40
0.0
 40
0.0
 40
1.0
 40
1.0
 40
1.0
 40
1.0
 10
220.1943326212
 20
331.1587885001
 30
0.0
 10
220.1655260901
 20
331.1421729463
 30
0.0
 10
220.132811267
 20
331.1310973464
 30
0.0
 10
220.0998351144
 20
331.1268001117
 30
0.0
  0
SPLINE
  5
426
100
AcDbEntity
  8
0
100
AcDbSpline
 62
7
  6
CONTINUOUS
 70
0
 71
3
 72
11
 73
7
 74
0
 42
0.0000001
 43
0.0000001
 44
0.0000000001
 40
0.0
 40
0.0
 40
0.0
 40
0.0
 40
0.2968138697
 40
0.5544792503
 40
0.784401453
 40
1.0
 40
1.0
 40
1.0
 40
1.0
 10
215.6128031411
 20
328.7256582544
 30
0.0
 10
215.3392884222
 20
328.7199123146
 30
0.0
 10
214.8190172106
 20
328.8190064529
 30
0.0
 10
214.2044077771
 20
329.2297069546
 30
0.0
 10
213.8173135062
 20
329.764641197
 30
0.0
 10
213.6951301961
 20
330.1651771632
 30
0.0
 10
213.6677162645
 20
330.3619955865
 30
0.0
  0
SPLINE
  5
427
100
AcDbEntity
  8
0
100
AcDbSpline
 62
7
  6
CONTINUOUS
 70
0
 71
3
 72
10
 73
6
 74
0
 42
0.0000001
 43
0.0000001
 44
0.0000000001
 40
0.0
 40
0.0
 40
0.0
 40
0.0
 40
0.0926403752
 40
0.2992472969
 40
1.0
 40
1.0
 40
1.0
 40
1.0
 10
215.4245684529
 20
331.1246622069
 30
0.0
 10
215.425562473
 20
331.1268350057
 30
0.0
 10
215.4255939647
 20
331.1348342494
 30
0.0
 10
215.4278854774
 20
331.1602162716
 30
0.0
 10
215.4278470494
 20
331.183833609
 30
0.0
 10
215.428138043
 20
331.2019050662
 30
0.0
  0
SPLINE
  5
428
100
AcDbEntity
  8
0
100
AcDbSpline
 62
7
  6
CONTINUOUS
 70
0
 71
3
 72
9
 73
5
 74
0
 42
0.0000001
 43
0.0000001
 44
0.0000000001
 40
0.0
 40
0.0
 40
0.0
 40
0.0
 40
0.4592376266
 40
1.0
 40
1.0
 40
1.0
 40
1.0
 10
218.7580088685
 20
329.3670591337
 30
0.0
 10
218.6036315686
 20
329.1773012749
 30
0.0
 10
218.1726236892
 20
328.8339293715
 30
0.0
 10
217.6274573759
 20
328.7194898046
 30
0.0
 10
217.3394745249
 20
328.7256582544
 30
0.0
  0
SPLINE
  5
429
100
AcDbEntity
  8
0
100
AcDbSpline
 62
9
  6
CONTINUOUS
 70
0
 71
3
 72
9
 73
5
 74
0
 42
0.0000001
 43
0.0000001
 44
0.0000000001
 40
0.0
 40
0.0
 40
0.0
 40
0.0
 40
0.2071970702
 40
1.0
 40
1.0
 40
1.0
 40
1.0
 10
213.1206942035
 20
332.3274517037
 30
0.0
 10
213.1283504554
 20
332.3227878394
 30
0.0
 10
213.165133629
 20
332.3000078989
 30
0.0
 10
213.2020995663
 20
332.2774839363
 30
0.0
 10
213.2320198895
 20
332.2607075058
 30
0.0
  0
SPLINE
  5
42A
100
AcDbEntity
  8
0
100
AcDbSpline
 62
9
  6
CONTINUOUS
 70
0
 71
3
 72
9
 73
5
 74
0
 42
0.0000001
 43
0.0000001
 44
0.0000000001
 40
0.0
 40
0.0
 40
0.0
 40
0.0
 40
0.300341293
 40
1.0
 40
1.0
 40
1.0
 40
1.0
 10
213.0709279317
 20
332.3502996062
 30
0.0
 10
213.0755391907
 20
332.3533534828
 30
0.0
 10
213.0956990769
 20
332.3412997075
 30
0.0
 10
213.109690716
 20
332.3341545293
 30
0.0
 10
213.1206941877
 20
332.3274516802
 30
0.0
  0
SPLINE
  5
42B
100
AcDbEntity
  8
0
100
AcDbSpline
 62
9
  6
CONTINUOUS
 70
0
 71
3
 72
10
 73
6
 74
0
 42
0.0000001
 43
0.0000001
 44
0.0000000001
 40
0.0
 40
0.0
 40
0.0
 40
0.0
 40
0.094814402
 40
0.3032932859
 40
1.0
 40
1.0
 40
1.0
 40
1.0
 10
213.0265959342
 20
332.2209953629
 30
0.0
 10
213.0274773816
 20
332.2219741114
 30
0.0
 10
213.0320653394
 20
332.2226173759
 30
0.0
 10
213.0449903486
 20
332.2262997268
 30
0.0
 10
213.0576762867
 20
332.2284177635
 30
0.0
 10
213.0671694975
 20
332.2303030505
 30
0.0
  0
SPLINE
  5
42C
100
AcDbEntity
  8
0
100
AcDbSpline
 62
9
  6
CONTINUOUS
 70
0
 71
3
 72
8
 73
4
 74
0
 42
0.0000001
 43
0.0000001
 44
0.0000000001
 40
0.0
 40
0.0
 40
0.0
 40
0.0
 40
1.0
 40
1.0
 40
1.0
 40
1.0
 10
213.0250758927
 20
332.2424054213
 30
0.0
 10
213.0250991541
 20
332.2814830582
 30
0.0
 10
213.0428131044
 20
332.3231588562
 30
0.0
 10
213.0709279175
 20
332.3502995918
 30
0.0
  0
SPLINE
  5
42D
100
AcDbEntity
  8
0
100
AcDbSpline
 62
9
  6
CONTINUOUS
 70
0
 71
3
 72
9
 73
5
 74
0
 42
0.0000001
 43
0.0000001
 44
0.0000000001
 40
0.0
 40
0.0
 40
0.0
 40
0.0
 40
0.4998908965
 40
1.0
 40
1.0
 40
1.0
 40
1.0
 10
213.1054593654
 20
332.109464263
 30
0.0
 10
213.0847141198
 20
332.1203182391
 30
0.0
 10
213.047855976
 20
332.1523747998
 30
0.0
 10
213.0299229774
 20
332.1978090392
 30
0.0
 10
213.0265959985
 20
332.2209948947
 30
0.0
  0
SPLINE
  5
42E
100
AcDbEntity
  8
0
100
AcDbSpline
 62
9
  6
CONTINUOUS
 70
0
 71
3
 72
9
 73
5
 74
0
 42
0.0000001
 43
0.0000001
 44
0.0000000001
 40
0.0
 40
0.0
 40
0.0
 40
0.0
 40
0.5147224994
 40
1.0
 40
1.0
 40
1.0
 40
1.0
 10
213.1412851977
 20
332.1537817056
 30
0.0
 10
213.126029052
 20
332.1641758366
 30
0.0
 10
213.0962519777
 20
332.1848600711
 30
0.0
 10
213.0752261372
 20
332.2148753302
 30
0.0
 10
213.067169546
 20
332.2303027265
 30
0.0
  0
SPLINE
  5
42F
100
AcDbEntity
  8
0
100
AcDbSpline
 62
9
  6
CONTINUOUS
 70
0
 71
3
 72
9
 73
5
 74
0
 42
0.0000001
 43
0.0000001
 44
0.0000000001
 40
0.0
 40
0.0
 40
0.0
 40
0.0
 40
0.514025102
 40
1.0
 40
1.0
 40
1.0
 40
1.0
 10
213.1206941757
 20
332.3274516624
 30
0.0
 10
213.1080720443
 20
332.3129829012
 30
0.0
 10
213.0838340865
 20
332.2839858352
 30
0.0
 10
213.0710446966
 20
332.2480371165
 30
0.0
 10
213.067169546
 20
332.2303027265
 30
0.0
  0
SPLINE
  5
430
100
AcDbEntity
  8
0
100
AcDbSpline
 62
9
  6
CONTINUOUS
 70
0
 71
3
 72
11
 73
7
 74
0
 42
0.0000001
 43
0.0000001
 44
0.0000000001
 40
0.0
 40
0.0
 40
0.0
 40
0.0
 40
0.4159525711
 40
0.7257371917
 40
0.9211035013
 40
1.0
 40
1.0
 40
1.0
 40
1.0
 10
213.1412852014
 20
332.1537817026
 30
0.0
 10
213.1364623797
 20
332.1474950224
 30
0.0
 10
213.1281433196
 20
332.1367214396
 30
0.0
 10
213.1175008332
 20
332.1219241263
 30
0.0
 10
213.1107493179
 20
332.1146479737
 30
0.0
 10
213.1069351464
 20
332.109179967
 30
0.0
 10
213.1054593757
 20
332.1094642595
 30
0.0
  0
SPLINE
  5
431
100
AcDbEntity
  8
0
100
AcDbSpline
 62
9
  6
CONTINUOUS
 70
0
 71
3
 72
9
 73
5
 74
0
 42
0.0000001
 43
0.0000001
 44
0.0000000001
 40
0.0
 40
0.0
 40
0.0
 40
0.0
 40
0.2850623778
 40
1.0
 40
1.0
 40
1.0
 40
1.0
 10
213.232019902
 20
332.2607074199
 30
0.0
 10
213.222819234
 20
332.2510625775
 30
0.0
 10
213.1911782993
 20
332.2166206819
 30
0.0
 10
213.1616334165
 20
332.1803060797
 30
0.0
 10
213.1412852381
 20
332.1537816721
 30
0.0
  0
SPLINE
  5
432
100
AcDbEntity
  8
0
100
AcDbSpline
 62
9
  6
CONTINUOUS
 70
0
 71
3
 72
9
 73
5
 74
0
 42
0.0000001
 43
0.0000001
 44
0.0000000001
 40
0.0
 40
0.0
 40
0.0
 40
0.0
 40
0.4994867309
 40
1.0
 40
1.0
 40
1.0
 40
1.0
 10
215.0808312371
 20
331.1246622115
 30
0.0
 10
215.0155769083
 20
331.1245560852
 30
0.0
 10
214.8793999973
 20
331.1789159784
 30
0.0
 10
214.8245682415
 20
331.3150038308
 30
0.0
 10
214.8245451184
 20
331.3803923519
 30
0.0
  0
SPLINE
  5
433
100
AcDbEntity
  8
0
100
AcDbSpline
 62
9
  6
CONTINUOUS
 70
0
 71
3
 72
11
 73
7
 74
0
 42
0.0000001
 43
0.0000001
 44
0.0000000001
 40
0.0
 40
0.0
 40
0.0
 40
0.0
 40
0.0883837141
 40
0.3149982833
 40
0.6446302598
 40
1.0
 40
1.0
 40
1.0
 40
1.0
 10
215.0808312403
 20
331.1246622069
 30
0.0
 10
215.0826674873
 20
331.1286760045
 30
0.0
 10
215.0818317639
 20
331.1451006219
 30
0.0
 10
215.0846000575
 20
331.176660842
 30
0.0
 10
215.0845666123
 20
331.222475958
 30
0.0
 10
215.0849480738
 20
331.2566078999
 30
0.0
 10
215.0849480739
 20
331.2743550712
 30
0.0
  0
SPLINE
  5
434
100
AcDbEntity
  8
0
100
AcDbSpline
 62
9
  6
CONTINUOUS
 70
0
 71
3
 72
9
 73
5
 74
0
 42
0.0000001
 43
0.0000001
 44
0.0000000001
 40
0.0
 40
0.0
 40
0.0
 40
0.0
 40
0.5002916923
 40
1.0
 40
1.0
 40
1.0
 40
1.0
 10
214.9788777187
 20
331.3803783918
 30
0.0
 10
214.9788814509
 20
331.3533073238
 30
0.0
 10
215.0015582496
 20
331.2969488971
 30
0.0
 10
215.0579192744
 20
331.2743514691
 30
0.0
 10
215.0849587752
 20
331.2743540585
 30
0.0
  0
SPLINE
  5
435
100
AcDbEntity
  8
0
100
AcDbSpline
 62
7
  6
CONTINUOUS
 70
0
 71
3
 72
11
 73
7
 74
0
 42
0.0000001
 43
0.0000001
 44
0.0000000001
 40
0.0
 40
0.0
 40
0.0
 40
0.0
 40
0.2500271468
 40
0.4999631215
 40
0.7499559431
 40
1.0
 40
1.0
 40
1.0
 40
1.0
 10
215.9461381146
 20
297.6868615029
 30
0.0
 10
215.9461381146
 20
297.7681941791
 30
0.0
 10
215.9788012753
 20
297.9326159378
 30
0.0
 10
216.1182135058
 20
298.1402474932
 30
0.0
 10
216.3260796625
 20
298.2792741442
 30
0.0
 10
216.490508702
 20
298.311859604
 30
0.0
 10
216.5718468789
 20
298.3118564203
 30
0.0
  0
SPLINE
  5
436
100
AcDbEntity
  8
0
100
AcDbSpline
 62
7
  6
CONTINUOUS
 70
0
 71
3
 72
11
 73
7
 74
0
 42
0.0000001
 43
0.0000001
 44
0.0000000001
 40
0.0
 40
0.0
 40
0.0
 40
0.0
 40
0.250050187
 40
0.5000371493
 40
0.7499728148
 40
1.0
 40
1.0
 40
1.0
 40
1.0
 10
216.571846855
 20
297.0618665854
 30
0.0
 10
216.4905066387
 20
297.0618697692
 30
0.0
 10
216.326076336
 20
297.0944441597
 30
0.0
 10
216.1182138191
 20
297.2334794991
 30
0.0
 10
215.9787996743
 20
297.4411060578
 30
0.0
 10
215.9461381146
 20
297.6055287688
 30
0.0
 10
215.9461381146
 20
297.6868615029
 30
0.0
  0
SPLINE
  5
437
100
AcDbEntity
  8
0
100
AcDbSpline
 62
7
  6
CONTINUOUS
 70
0
 71
3
 72
11
 73
7
 74
0
 42
0.0000001
 43
0.0000001
 44
0.0000000001
 40
0.0
 40
0.0
 40
0.0
 40
0.0
 40
0.2500947036
 40
0.4998248649
 40
0.749698292
 40
1.0
 40
1.0
 40
1.0
 40
1.0
 10
216.5718468789
 20
298.3118564203
 30
0.0
 10
216.6530936771
 20
298.3118532401
 30
0.0
 10
216.8172674001
 20
298.2793595567
 30
0.0
 10
217.0245960076
 20
298.1401795387
 30
0.0
 10
217.1632168061
 20
297.9324397772
 30
0.0
 10
217.1956006756
 20
297.7681755494
 30
0.0
 10
217.1956006756
 20
297.6868615029
 30
0.0
  0
SPLINE
  5
438
100
AcDbEntity
  8
0
100
AcDbSpline
 62
7
  6
CONTINUOUS
 70
0
 71
3
 72
11
 73
7
 74
0
 42
0.0000001
 43
0.0000001
 44
0.0000000001
 40
0.0
 40
0.0
 40
0.0
 40
0.0
 40
0.2503016649
 40
0.5001754143
 40
0.7499114408
 40
1.0
 40
1.0
 40
1.0
 40
1.0
 10
217.1956006756
 20
297.6868615029
 30
0.0
 10
217.1956006756
 20
297.6055475154
 30
0.0
 10
217.1632152305
 20
297.4412842285
 30
0.0
 10
217.0245963245
 20
297.2335394844
 30
0.0
 10
216.8172640645
 20
297.0943681511
 30
0.0
 10
216.653091612
 20
297.0618634053
 30
0.0
 10
216.571846855
 20
297.0618665854
 30
0.0
  0
SPLINE
  5
439
100
AcDbEntity
  8
ALL_FEATURES
100
AcDbSpline
 62
2
  6
CONTINUOUS
 70
0
 71
3
 72
53
 73
49
 74
0
 42
0.0000001
 43
0.0000001
 44
0.0000000001
 40
0.0
 40
0.0
 40
0.0
 40
0.0
 40
0.0625
 40
0.09375
 40
0.125
 40
0.140625
 40
0.15625
 40
0.1640625
 40
0.16796875
 40
0.171875
 40
0.1796875
 40
0.1875
 40
0.21875
 40
0.25
 40
0.28125
 40
0.3125
 40
0.3203125
 40
0.328125
 40
0.33203125
 40
0.3359375
 40
0.34375
 40
0.359375
 40
0.375
 40
0.4375
 40
0.46875
 40
0.484375
 40
0.4921875
 40
0.5
 40
0.5078125
 40
0.515625
 40
0.53125
 40
0.5625
 40
0.625
 40
0.640625
 40
0.65625
 40
0.6640625
 40
0.671875
 40
0.6875
 40
0.71875
 40
0.75
 40
0.78125
 40
0.8125
 40
0.828125
 40
0.84375
 40
0.859375
 40
0.875
 40
0.9375
 40
1.0
 40
1.0
 40
1.0
 40
1.0
 10
108.4546785118
 20
297.1938976151
 30
0.0
 10
108.4549203346
 20
297.2020808554
 30
0.0
 10
108.4552830507
 20
297.2143562504
 30
0.0
 10
108.455766744
 20
297.2307213058
 30
0.0
 10
108.4560689027
 20
297.2409539194
 30
0.0
 10
108.4563109707
 20
297.2491298553
 30
0.0
 10
108.4564614855
 20
297.2542629756
 30
0.0
 10
108.4565684045
 20
297.2578097444
 30
0.0
 10
108.4566270623
 20
297.2599090906
 30
0.0
 10
108.4566765342
 20
297.2622819643
 30
0.0
 10
108.4567415139
 20
297.2651545618
 30
0.0
 10
108.4568948804
 20
297.2721257609
 30
0.0
 10
108.4571260255
 20
297.2825500185
 30
0.0
 10
108.4574335466
 20
297.2964686511
 30
0.0
 10
108.4577414203
 20
297.3103782144
 30
0.0
 10
108.457971772
 20
297.3208228782
 30
0.0
 10
108.4581261522
 20
297.3277680027
 30
0.0
 10
108.4581892772
 20
297.3306883092
 30
0.0
 10
108.4582425761
 20
297.3329627417
 30
0.0
 10
108.4582856392
 20
297.3354632217
 30
0.0
 10
108.4583562439
 20
297.3399440854
 30
0.0
 10
108.4584595892
 20
297.3462905453
 30
0.0
 10
108.4587055357
 20
297.361567771
 30
0.0
 10
108.4589936051
 20
297.3793690021
 30
0.0
 10
108.4592801011
 20
297.3971968231
 30
0.0
 10
108.4594250301
 20
297.4060841681
 30
0.0
 10
108.4595051896
 20
297.4112043933
 30
0.0
 10
108.4595728001
 20
297.4149269252
 30
0.0
 10
108.4596117759
 20
297.4190991339
 30
0.0
 10
108.4596737322
 20
297.4245052249
 30
0.0
 10
108.4597774959
 20
297.4340389812
 30
0.0
 10
108.4599885016
 20
297.4530528118
 30
0.0
 10
108.4601972774
 20
297.4720963461
 30
0.0
 10
108.4603785219
 20
297.4883940689
 30
0.0
 10
108.4604512793
 20
297.4952128199
 30
0.0
 10
108.4605158826
 20
297.5006030718
 30
0.0
 10
108.4605571052
 20
297.5062298926
 30
0.0
 10
108.4606183663
 20
297.5161868757
 30
0.0
 10
108.460711676
 20
297.5303526826
 30
0.0
 10
108.4608207022
 20
297.5473806978
 30
0.0
 10
108.4609322402
 20
297.5643860529
 30
0.0
 10
108.4610192702
 20
297.5786085099
 30
0.0
 10
108.4611018422
 20
297.5898746191
 30
0.0
 10
108.4611284785
 20
297.5986289734
 30
0.0
 10
108.4611452294
 20
297.6074686902
 30
0.0
 10
108.4611838176
 20
297.6251042029
 30
0.0
 10
108.4612395464
 20
297.6515760675
 30
0.0
 10
108.4612899581
 20
297.6750990574
 30
0.0
 10
108.4613150546
 20
297.686861497
 30
0.0
  0
SPLINE
  5
43A
100
AcDbEntity
  8
ALL_FEATURES
100
AcDbSpline
 62
2
  6
CONTINUOUS
 70
0
 71
3
 72
51
 73
47
 74
0
 42
0.0000001
 43
0.0000001
 44
0.0000000001
 40
0.0
 40
0.0
 40
0.0
 40
0.0
 40
0.0625
 40
0.125
 40
0.15625
 40
0.171875
 40
0.1875
 40
0.25
 40
0.28125
 40
0.3125
 40
0.328125
 40
0.3359375
 40
0.34375
 40
0.359375
 40
0.375
 40
0.4375
 40
0.46875
 40
0.484375
 40
0.4921875
 40
0.5
 40
0.5078125
 40
0.515625
 40
0.53125
 40
0.5625
 40
0.625
 40
0.640625
 40
0.65625
 40
0.6640625
 40
0.66796875
 40
0.671875
 40
0.6796875
 40
0.6875
 40
0.71875
 40
0.75
 40
0.78125
 40
0.8125
 40
0.8203125
 40
0.828125
 40
0.83203125
 40
0.8359375
 40
0.84375
 40
0.859375
 40
0.875
 40
0.90625
 40
0.9375
 40
1.0
 40
1.0
 40
1.0
 40
1.0
 10
108.4613150546
 20
297.6868615029
 30
0.0
 10
108.4612906982
 20
297.6984501037
 30
0.0
 10
108.461242902
 20
297.721631811
 30
0.0
 10
108.4611785745
 20
297.7505864174
 30
0.0
 10
108.4611419649
 20
297.7708960364
 30
0.0
 10
108.461107986
 20
297.7824373294
 30
0.0
 10
108.4609859172
 20
297.7993999612
 30
0.0
 10
108.4608673419
 20
297.8193054424
 30
0.0
 10
108.4607211964
 20
297.8420070348
 30
0.0
 10
108.4606291887
 20
297.8561820736
 30
0.0
 10
108.4605685091
 20
297.8661432563
 30
0.0
 10
108.4605276479
 20
297.871773131
 30
0.0
 10
108.4604633853
 20
297.8771681272
 30
0.0
 10
108.4603910609
 20
297.8839922303
 30
0.0
 10
108.4602108497
 20
297.9003032773
 30
0.0
 10
108.4600032818
 20
297.9193621626
 30
0.0
 10
108.4597934819
 20
297.9383915072
 30
0.0
 10
108.4596903228
 20
297.9479328923
 30
0.0
 10
108.4596287093
 20
297.9533435391
 30
0.0
 10
108.4595899981
 20
297.9575186119
 30
0.0
 10
108.4595226237
 20
297.9612461204
 30
0.0
 10
108.459442789
 20
297.9663722443
 30
0.0
 10
108.4592984236
 20
297.9752702549
 30
0.0
 10
108.4590130585
 20
297.9931191592
 30
0.0
 10
108.4587261182
 20
298.0109415897
 30
0.0
 10
108.4584811407
 20
298.0262369148
 30
0.0
 10
108.458378198
 20
298.0325909801
 30
0.0
 10
108.4583078776
 20
298.0370770394
 30
0.0
 10
108.4582649731
 20
298.0395806888
 30
0.0
 10
108.4582118184
 20
298.041859046
 30
0.0
 10
108.4581488787
 20
298.0447840001
 30
0.0
 10
108.4579949391
 20
298.0517404933
 30
0.0
 10
108.4577652509
 20
298.0622020916
 30
0.0
 10
108.4574582558
 20
298.0761344373
 30
0.0
 10
108.4571516321
 20
298.0900752929
 30
0.0
 10
108.4569211083
 20
298.1005177439
 30
0.0
 10
108.4567682363
 20
298.1074987031
 30
0.0
 10
108.4567033433
 20
298.1103788915
 30
0.0
 10
108.4566542191
 20
298.1127496167
 30
0.0
 10
108.4565948912
 20
298.1148768796
 30
0.0
 10
108.4564863265
 20
298.1184864715
 30
0.0
 10
108.4563337077
 20
298.1237020508
 30
0.0
 10
108.4560881352
 20
298.1320139942
 30
0.0
 10
108.4557816431
 20
298.1424152218
 30
0.0
 10
108.4552909899
 20
298.1590508431
 30
0.0
 10
108.4549230599
 20
298.1715289862
 30
0.0
 10
108.4546777598
 20
298.1798474311
 30
0.0
  0
SPLINE
  5
43B
100
AcDbEntity
  8
ALL_FEATURES
100
AcDbSpline
 62
2
  6
CONTINUOUS
 70
0
 71
3
 72
51
 73
47
 74
0
 42
0.0000001
 43
0.0000001
 44
0.0000000001
 40
0.0
 40
0.0
 40
0.0
 40
0.0
 40
0.0625
 40
0.125
 40
0.15625
 40
0.171875
 40
0.1875
 40
0.25
 40
0.28125
 40
0.3125
 40
0.328125
 40
0.3359375
 40
0.34375
 40
0.359375
 40
0.375
 40
0.4375
 40
0.46875
 40
0.484375
 40
0.4921875
 40
0.5
 40
0.5078125
 40
0.515625
 40
0.53125
 40
0.5625
 40
0.625
 40
0.640625
 40
0.65625
 40
0.6640625
 40
0.66796875
 40
0.671875
 40
0.6796875
 40
0.6875
 40
0.71875
 40
0.75
 40
0.78125
 40
0.8125
 40
0.8203125
 40
0.828125
 40
0.83203125
 40
0.8359375
 40
0.84375
 40
0.859375
 40
0.875
 40
0.90625
 40
0.9375
 40
1.0
 40
1.0
 40
1.0
 40
1.0
 10
96.7057112526
 20
297.6868615029
 30
0.0
 10
96.7057356089
 20
297.6984501037
 30
0.0
 10
96.7057834052
 20
297.721631811
 30
0.0
 10
96.7058477327
 20
297.7505864174
 30
0.0
 10
96.7058843422
 20
297.7708960364
 30
0.0
 10
96.7059183211
 20
297.7824373294
 30
0.0
 10
96.7060403899
 20
297.7993999612
 30
0.0
 10
96.7061589653
 20
297.8193054424
 30
0.0
 10
96.7063051107
 20
297.8420070348
 30
0.0
 10
96.7063971185
 20
297.8561820736
 30
0.0
 10
96.706457798
 20
297.8661432563
 30
0.0
 10
96.7064986592
 20
297.871773131
 30
0.0
 10
96.7065629218
 20
297.8771681271
 30
0.0
 10
96.7066352462
 20
297.8839922302
 30
0.0
 10
96.7068154575
 20
297.9003032773
 30
0.0
 10
96.7070230254
 20
297.9193621626
 30
0.0
 10
96.7072328253
 20
297.9383915072
 30
0.0
 10
96.7073359844
 20
297.9479328923
 30
0.0
 10
96.7073975979
 20
297.9533435391
 30
0.0
 10
96.707436309
 20
297.9575186119
 30
0.0
 10
96.7075036834
 20
297.9612461204
 30
0.0
 10
96.7075835182
 20
297.9663722443
 30
0.0
 10
96.7077278835
 20
297.9752702549
 30
0.0
 10
96.7080132487
 20
297.9931191592
 30
0.0
 10
96.7083001889
 20
298.0109415897
 30
0.0
 10
96.7085451664
 20
298.0262369148
 30
0.0
 10
96.7086481092
 20
298.03259098
 30
0.0
 10
96.7087184296
 20
298.0370770394
 30
0.0
 10
96.7087613341
 20
298.0395806888
 30
0.0
 10
96.7088144887
 20
298.041859046
 30
0.0
 10
96.7088774284
 20
298.0447840001
 30
0.0
 10
96.709031368
 20
298.0517404933
 30
0.0
 10
96.7092610563
 20
298.0622020922
 30
0.0
 10
96.7095680513
 20
298.0761344352
 30
0.0
 10
96.7098746753
 20
298.0900753007
 30
0.0
 10
96.7101051981
 20
298.1005177241
 30
0.0
 10
96.7102580714
 20
298.1074987193
 30
0.0
 10
96.7103229621
 20
298.1103788418
 30
0.0
 10
96.710372091
 20
298.112749703
 30
0.0
 10
96.7104314
 20
298.114876412
 30
0.0
 10
96.7105399207
 20
298.1184847141
 30
0.0
 10
96.7106924823
 20
298.123698618
 30
0.0
 10
96.7109379602
 20
298.1320077875
 30
0.0
 10
96.7112443351
 20
298.1424055797
 30
0.0
 10
96.7117348001
 20
298.1590356862
 30
0.0
 10
96.7121025892
 20
298.1715096974
 30
0.0
 10
96.7123477952
 20
298.1798253868
 30
0.0
  0
SPLINE
  5
43C
100
AcDbEntity
  8
ALL_FEATURES
100
AcDbSpline
 62
2
  6
CONTINUOUS
 70
0
 71
3
 72
47
 73
43
 74
0
 42
0.0000001
 43
0.0000001
 44
0.0000000001
 40
0.0
 40
0.0
 40
0.0
 40
0.0
 40
0.0625
 40
0.09375
 40
0.125
 40
0.140625
 40
0.15625
 40
0.1640625
 40
0.16796875
 40
0.171875
 40
0.1796875
 40
0.1875
 40
0.21875
 40
0.25
 40
0.28125
 40
0.3125
 40
0.328125
 40
0.3359375
 40
0.34375
 40
0.359375
 40
0.375
 40
0.4375
 40
0.46875
 40
0.484375
 40
0.4921875
 40
0.5
 40
0.5078125
 40
0.515625
 40
0.53125
 40
0.5625
 40
0.625
 40
0.65625
 40
0.671875
 40
0.6875
 40
0.71875
 40
0.75
 40
0.8125
 40
0.828125
 40
0.84375
 40
0.875
 40
0.9375
 40
1.0
 40
1.0
 40
1.0
 40
1.0
 10
96.7380852697
 20
298.1519092671
 30
0.0
 10
96.7382960736
 20
298.143890982
 30
0.0
 10
96.7386122634
 20
298.1318631236
 30
0.0
 10
96.7390339143
 20
298.1158277018
 30
0.0
 10
96.7392973118
 20
298.1058019743
 30
0.0
 10
96.7395083359
 20
298.0977895748
 30
0.0
 10
96.7396395277
 20
298.0927631633
 30
0.0
 10
96.7397327615
 20
298.0892820751
 30
0.0
 10
96.7397838483
 20
298.0872343664
 30
0.0
 10
96.7398266877
 20
298.0849662589
 30
0.0
 10
96.7398830561
 20
298.0822064619
 30
0.0
 10
96.7400160182
 20
298.0755209067
 30
0.0
 10
96.740216463
 20
298.0655191616
 30
0.0
 10
96.7404830248
 20
298.0521657848
 30
0.0
 10
96.7407502417
 20
298.0388265542
 30
0.0
 10
96.7409713202
 20
298.0276781385
 30
0.0
 10
96.7411291532
 20
298.0199360781
 30
0.0
 10
96.7412145476
 20
298.0154157654
 30
0.0
 10
96.7412818824
 20
298.0105329258
 30
0.0
 10
96.7413722281
 20
298.0045533566
 30
0.0
 10
96.7415839352
 20
297.9900997609
 30
0.0
 10
96.7418330373
 20
297.973277429
 30
0.0
 10
96.7420802903
 20
297.9564243088
 30
0.0
 10
96.7422054242
 20
297.9480198133
 30
0.0
 10
96.7422746093
 20
297.9431838177
 30
0.0
 10
96.7423330272
 20
297.9396507971
 30
0.0
 10
96.7423664892
 20
297.9357585857
 30
0.0
 10
96.742419813
 20
297.9306942842
 30
0.0
 10
96.7425090428
 20
297.9217731309
 30
0.0
 10
96.7426908289
 20
297.9039764365
 30
0.0
 10
96.7428944569
 20
297.8835925899
 30
0.0
 10
96.7430801397
 20
297.865828626
 30
0.0
 10
96.7431754366
 20
297.8555769128
 30
0.0
 10
96.7432303532
 20
297.8449488959
 30
0.0
 10
96.7433125465
 20
297.831790677
 30
0.0
 10
96.7434381121
 20
297.8106785996
 30
0.0
 10
96.7435412537
 20
297.792159853
 30
0.0
 10
96.7436468646
 20
297.776412147
 30
0.0
 10
96.7436765214
 20
297.7656137984
 30
0.0
 10
96.7437087488
 20
297.7465718493
 30
0.0
 10
96.7437651417
 20
297.719445296
 30
0.0
 10
96.7438071006
 20
297.697720821
 30
0.0
 10
96.7438284745
 20
297.6868614876
 30
0.0
  0
SPLINE
  5
43D
100
AcDbEntity
  8
ALL_FEATURES
100
AcDbSpline
 62
2
  6
CONTINUOUS
 70
0
 71
3
 72
45
 73
41
 74
0
 42
0.0000001
 43
0.0000001
 44
0.0000000001
 40
0.0
 40
0.0
 40
0.0
 40
0.0
 40
0.0625
 40
0.125
 40
0.15625
 40
0.1875
 40
0.25
 40
0.28125
 40
0.3125
 40
0.328125
 40
0.34375
 40
0.375
 40
0.4375
 40
0.46875
 40
0.484375
 40
0.4921875
 40
0.5
 40
0.5078125
 40
0.515625
 40
0.53125
 40
0.5625
 40
0.625
 40
0.640625
 40
0.65625
 40
0.6640625
 40
0.671875
 40
0.6875
 40
0.71875
 40
0.75
 40
0.78125
 40
0.8125
 40
0.8203125
 40
0.828125
 40
0.8359375
 40
0.84375
 40
0.859375
 40
0.875
 40
0.90625
 40
0.9375
 40
1.0
 40
1.0
 40
1.0
 40
1.0
 10
96.7438284745
 20
297.6868615029
 30
0.0
 10
96.7438075471
 20
297.6761156711
 30
0.0
 10
96.7437678695
 20
297.6546141159
 30
0.0
 10
96.7437073858
 20
297.6277866309
 30
0.0
 10
96.7436818611
 20
297.606220779
 30
0.0
 10
96.7435735966
 20
297.5850308155
 30
0.0
 10
96.7434410623
 20
297.5639548971
 30
0.0
 10
96.7433189304
 20
297.542821305
 30
0.0
 10
96.7432368169
 20
297.5296619568
 30
0.0
 10
96.7431824
 20
297.5190309442
 30
0.0
 10
96.7430875121
 20
297.5087747499
 30
0.0
 10
96.7429025729
 20
297.4910018218
 30
0.0
 10
96.7426997829
 20
297.4706082349
 30
0.0
 10
96.7425187332
 20
297.4528028156
 30
0.0
 10
96.7424298721
 20
297.4438773822
 30
0.0
 10
96.7423767576
 20
297.4388105225
 30
0.0
 10
96.7423434565
 20
297.4349167065
 30
0.0
 10
96.7422851847
 20
297.4313808813
 30
0.0
 10
96.7422161995
 20
297.4265415648
 30
0.0
 10
96.7420914131
 20
297.4181310626
 30
0.0
 10
96.7418448568
 20
297.4012660739
 30
0.0
 10
96.7415964501
 20
297.3844317847
 30
0.0
 10
96.7413853406
 20
297.3699680265
 30
0.0
 10
96.741295242
 20
297.3639841209
 30
0.0
 10
96.7412281091
 20
297.3590980485
 30
0.0
 10
96.7411429014
 20
297.3545736394
 30
0.0
 10
96.7409853903
 20
297.3468239572
 30
0.0
 10
96.7407647587
 20
297.3356652705
 30
0.0
 10
96.7404981508
 20
297.3223117876
 30
0.0
 10
96.7402319281
 20
297.3089508794
 30
0.0
 10
96.7400324929
 20
297.2989247682
 30
0.0
 10
96.7398990293
 20
297.2922520646
 30
0.0
 10
96.7398332338
 20
297.2888947816
 30
0.0
 10
96.7397637945
 20
297.2856189495
 30
0.0
 10
96.73965387
 20
297.2816387585
 30
0.0
 10
96.7395224012
 20
297.2765308111
 30
0.0
 10
96.7393087332
 20
297.2684322605
 30
0.0
 10
96.7390427847
 20
297.2582836671
 30
0.0
 10
96.7386166291
 20
297.2420601801
 30
0.0
 10
96.738297156
 20
297.2298893559
 30
0.0
 10
96.738084142
 20
297.2217761861
 30
0.0
  0
SPLINE
  5
43E
100
AcDbEntity
  8
ALL_FEATURES
100
AcDbSpline
 62
2
  6
CONTINUOUS
 70
0
 71
3
 72
53
 73
49
 74
0
 42
0.0000001
 43
0.0000001
 44
0.0000000001
 40
0.0
 40
0.0
 40
0.0
 40
0.0
 40
0.0625
 40
0.09375
 40
0.125
 40
0.140625
 40
0.15625
 40
0.1640625
 40
0.16796875
 40
0.171875
 40
0.1796875
 40
0.1875
 40
0.21875
 40
0.25
 40
0.28125
 40
0.3125
 40
0.3203125
 40
0.328125
 40
0.33203125
 40
0.3359375
 40
0.34375
 40
0.359375
 40
0.375
 40
0.4375
 40
0.46875
 40
0.484375
 40
0.4921875
 40
0.5
 40
0.5078125
 40
0.515625
 40
0.53125
 40
0.5625
 40
0.625
 40
0.640625
 40
0.65625
 40
0.6640625
 40
0.671875
 40
0.6875
 40
0.71875
 40
0.75
 40
0.78125
 40
0.8125
 40
0.828125
 40
0.84375
 40
0.859375
 40
0.875
 40
0.9375
 40
1.0
 40
1.0
 40
1.0
 40
1.0
 10
96.712348547
 20
297.1938755845
 30
0.0
 10
96.7121067118
 20
297.202058396
 30
0.0
 10
96.7117439769
 20
297.2143331476
 30
0.0
 10
96.7112602587
 20
297.2306973452
 30
0.0
 10
96.7109580843
 20
297.2409294228
 30
0.0
 10
96.7107160039
 20
297.2491049294
 30
0.0
 10
96.7105654813
 20
297.2542377827
 30
0.0
 10
96.7104585568
 20
297.2577843619
 30
0.0
 10
96.7103998959
 20
297.2598836041
 30
0.0
 10
96.7103504203
 20
297.26225639
 30
0.0
 10
96.7102854362
 20
297.2651288723
 30
0.0
 10
96.7101320591
 20
297.2720997994
 30
0.0
 10
96.7099008981
 20
297.282523647
 30
0.0
 10
96.7095933558
 20
297.2964417342
 30
0.0
 10
96.7092854609
 20
297.3103507514
 30
0.0
 10
96.7090550932
 20
297.3207950067
 30
0.0
 10
96.7089007025
 20
297.3277398573
 30
0.0
 10
96.7088375731
 20
297.3306600519
 30
0.0
 10
96.7087842706
 20
297.3329343898
 30
0.0
 10
96.7087412037
 20
297.3354347935
 30
0.0
 10
96.7086705923
 20
297.339915532
 30
0.0
 10
96.7085672373
 20
297.3462618086
 30
0.0
 10
96.7083212675
 20
297.361538598
 30
0.0
 10
96.7080331709
 20
297.3793393182
 30
0.0
 10
96.7077466478
 20
297.3971666311
 30
0.0
 10
96.7076017052
 20
297.406053719
 30
0.0
 10
96.7075215378
 20
297.411173802
 30
0.0
 10
96.7074539217
 20
297.4148962141
 30
0.0
 10
96.7074149396
 20
297.4190683536
 30
0.0
 10
96.707352975
 20
297.4244743347
 30
0.0
 10
96.7072491967
 20
297.4340079069
 30
0.0
 10
96.7070381621
 20
297.4530213633
 30
0.0
 10
96.7068293572
 20
297.4720645273
 30
0.0
 10
96.7066480879
 20
297.4883619287
 30
0.0
 10
96.7065753201
 20
297.4951805506
 30
0.0
 10
96.7065107086
 20
297.5005706879
 30
0.0
 10
96.7064694773
 20
297.5061974355
 30
0.0
 10
96.7064082011
 20
297.516154311
 30
0.0
 10
96.7063148698
 20
297.530319944
 30
0.0
 10
96.7062058177
 20
297.5473478004
 30
0.0
 10
96.7060942538
 20
297.5643528293
 30
0.0
 10
96.706007202
 20
297.578575531
 30
0.0
 10
96.7059246129
 20
297.5898406799
 30
0.0
 10
96.7058979632
 20
297.5985974723
 30
0.0
 10
96.7058811988
 20
297.607440512
 30
0.0
 10
96.7058425837
 20
297.6250822152
 30
0.0
 10
96.7057868146
 20
297.6515635583
 30
0.0
 10
96.705736367
 20
297.6750948953
 30
0.0
 10
96.7057112526
 20
297.6868615181
 30
0.0
  0
SPLINE
  5
43F
100
AcDbEntity
  8
0
100
AcDbSpline
 62
2
  6
CONTINUOUS
 70
0
 71
3
 72
13
 73
9
 74
0
 42
0.0000001
 43
0.0000001
 44
0.0000000001
 40
0.0
 40
0.0
 40
0.0
 40
0.0
 40
0.1731533325
 40
0.346306665
 40
0.5194599976
 40
0.6926133301
 40
0.8657666626
 40
1.0
 40
1.0
 40
1.0
 40
1.0
 10
108.3996130793
 20
326.9368615029
 30
0.0
 10
108.3996130793
 20
326.8581492886
 30
0.0
 10
108.4023072982
 20
326.6993129551
 30
0.0
 10
108.4141601452
 20
326.4671116537
 30
0.0
 10
108.4301346894
 20
326.267105497
 30
0.0
 10
108.4455905052
 20
326.108887757
 30
0.0
 10
108.4562758716
 20
326.0008151649
 30
0.0
 10
108.4584831944
 20
325.9627024708
 30
0.0
 10
108.4584973564
 20
325.9518775151
 30
0.0
  0
SPLINE
  5
440
100
AcDbEntity
  8
0
100
AcDbSpline
 62
2
  6
CONTINUOUS
 70
0
 71
3
 72
13
 73
9
 74
0
 42
0.0000001
 43
0.0000001
 44
0.0000000001
 40
0.0
 40
0.0
 40
0.0
 40
0.0
 40
0.1343842042
 40
0.3075073634
 40
0.4806305225
 40
0.6537536817
 40
0.8268768408
 40
1.0
 40
1.0
 40
1.0
 40
1.0
 10
108.4584975717
 20
327.9218465353
 30
0.0
 10
108.4584835268
 20
327.9110121999
 30
0.0
 10
108.4562736591
 20
327.872881517
 30
0.0
 10
108.4455804761
 20
327.7647386722
 30
0.0
 10
108.4301128271
 20
327.6063768183
 30
0.0
 10
108.4141532481
 20
327.4064809757
 30
0.0
 10
108.4023091806
 20
327.1744352228
 30
0.0
 10
108.3996130793
 20
327.0155957868
 30
0.0
 10
108.3996130793
 20
326.9368615029
 30
0.0
  0
LINE
  5
441
100
AcDbEntity
  8
ALL_AXES
100
AcDbLine
 62
7
  6
CONTINUOUS
 10
108.4642471486
 20
297.6868615029
 30
0.0
 11
108.4642220125
 21
297.6510409739
 31
0.0
  0
SPLINE
  5
442
100
AcDbEntity
  8
ALL_AXES
100
AcDbSpline
 62
7
  6
CONTINUOUS
 70
0
 71
3
 72
9
 73
5
 74
0
 42
0.0000001
 43
0.0000001
 44
0.0000000001
 40
0.0
 40
0.0
 40
0.0
 40
0.0
 40
0.5457527336
 40
1.0
 40
1.0
 40
1.0
 40
1.0
 10
108.4642220125
 20
297.6510409739
 30
0.0
 10
108.4640906177
 20
297.5574028143
 30
0.0
 10
108.4629188332
 20
297.3858281497
 30
0.0
 10
108.4596600792
 20
297.2142717432
 30
0.0
 10
108.4571917587
 20
297.1363727598
 30
0.0
  0
LINE
  5
443
100
AcDbEntity
  8
ALL_AXES
100
AcDbLine
 62
7
  6
CONTINUOUS
 10
108.4544876999
 20
297.0635759507
 30
0.0
 11
108.4541455163
 21
297.0559213532
 31
0.0
  0
LINE
  5
444
100
AcDbEntity
  8
ALL_AXES
100
AcDbLine
 62
7
  6
CONTINUOUS
 10
108.4642471486
 20
297.6868615029
 30
0.0
 11
108.4642220125
 21
297.7226820318
 31
0.0
  0
SPLINE
  5
445
100
AcDbEntity
  8
ALL_AXES
100
AcDbSpline
 62
7
  6
CONTINUOUS
 70
0
 71
3
 72
9
 73
5
 74
0
 42
0.0000001
 43
0.0000001
 44
0.0000000001
 40
0.0
 40
0.0
 40
0.0
 40
0.0
 40
0.5457658796
 40
1.0
 40
1.0
 40
1.0
 40
1.0
 10
108.4642220125
 20
297.7226820318
 30
0.0
 10
108.4640906003
 20
297.8163325928
 30
0.0
 10
108.4629185562
 20
297.9879258459
 30
0.0
 10
108.45965905
 20
298.1595008393
 30
0.0
 10
108.4571899922
 20
298.2374059913
 30
0.0
  0
LINE
  5
446
100
AcDbEntity
  8
ALL_AXES
100
AcDbLine
 62
7
  6
CONTINUOUS
 10
108.4544934627
 20
298.3100154636
 30
0.0
 11
108.4541455163
 21
298.3178016525
 31
0.0
  0
SPLINE
  5
447
100
AcDbEntity
  8
ALL_AXES
100
AcDbSpline
 62
7
  6
CONTINUOUS
 70
0
 71
3
 72
9
 73
5
 74
0
 42
0.0000001
 43
0.0000001
 44
0.0000000001
 40
0.0
 40
0.0
 40
0.0
 40
0.0
 40
0.4542472664
 40
1.0
 40
1.0
 40
1.0
 40
1.0
 10
96.7098345484
 20
298.237350246
 30
0.0
 10
96.707366228
 20
298.1594512626
 30
0.0
 10
96.704107474
 20
297.987894856
 30
0.0
 10
96.7029356895
 20
297.8163201914
 30
0.0
 10
96.7028042946
 20
297.7226820318
 30
0.0
  0
LINE
  5
448
100
AcDbEntity
  8
ALL_AXES
100
AcDbLine
 62
7
  6
CONTINUOUS
 10
96.7028042946
 20
297.7226820318
 30
0.0
 11
96.7027791586
 21
297.6868615029
 31
0.0
  0
SPLINE
  5
449
100
AcDbEntity
  8
ALL_AXES
100
AcDbSpline
 62
7
  6
CONTINUOUS
 70
0
 71
3
 72
9
 73
5
 74
0
 42
0.0000001
 43
0.0000001
 44
0.0000000001
 40
0.0
 40
0.0
 40
0.0
 40
0.0
 40
0.4542341204
 40
1.0
 40
1.0
 40
1.0
 40
1.0
 10
96.709836315
 20
297.1363170144
 30
0.0
 10
96.7073672571
 20
297.2142221663
 30
0.0
 10
96.704107751
 20
297.3857971598
 30
0.0
 10
96.7029357069
 20
297.5573904129
 30
0.0
 10
96.7028042946
 20
297.6510409739
 30
0.0
  0
LINE
  5
44A
100
AcDbEntity
  8
ALL_AXES
100
AcDbLine
 62
7
  6
CONTINUOUS
 10
96.7028042946
 20
297.6510409739
 30
0.0
 11
96.7027791586
 21
297.6868615029
 31
0.0
  0
SPLINE
  5
44B
100
AcDbEntity
  8
ALL_AXES
100
AcDbSpline
 62
7
  6
CONTINUOUS
 70
0
 71
3
 72
9
 73
5
 74
0
 42
0.0000001
 43
0.0000001
 44
0.0000000001
 40
0.0
 40
0.0
 40
0.0
 40
0.0
 40
0.522669799
 40
1.0
 40
1.0
 40
1.0
 40
1.0
 10
96.7467605685
 20
297.6868615029
 30
0.0
 10
96.7467605685
 20
297.7597250547
 30
0.0
 10
96.746175188
 20
297.8991320313
 30
0.0
 10
96.7443349869
 20
298.0385294388
 30
0.0
 10
96.7430245952
 20
298.1050594537
 30
0.0
  0
SPLINE
  5
44C
100
AcDbEntity
  8
ALL_AXES
100
AcDbSpline
 62
7
  6
CONTINUOUS
 70
0
 71
3
 72
20
 73
16
 74
0
 42
0.0000001
 43
0.0000001
 44
0.0000000001
 40
0.0
 40
0.0
 40
0.0
 40
0.0
 40
0.2188445683
 40
0.4156537755
 40
0.5874923384
 40
0.7318041711
 40
0.7929559129
 40
0.8464571684
 40
0.8921234261
 40
0.9297896284
 40
0.9593412931
 40
0.9807162845
 40
0.993969916
 40
0.9977212979
 40
1.0
 40
1.0
 40
1.0
 40
1.0
 10
96.7430245952
 20
298.1050594537
 30
0.0
 10
96.7425459941
 20
298.1293585553
 30
0.0
 10
96.7415235859
 20
298.1755079889
 30
0.0
 10
96.7396773731
 20
298.2407264394
 30
0.0
 10
96.7376219277
 20
298.2976567746
 30
0.0
 10
96.7356787111
 20
298.3395143153
 30
0.0
 10
96.7339926894
 20
298.3682247688
 30
0.0
 10
96.7327680939
 20
298.3859868686
 30
0.0
 10
96.7315198846
 20
298.4011334202
 30
0.0
 10
96.7302568874
 20
298.4136036472
 30
0.0
 10
96.7289888678
 20
298.4233710824
 30
0.0
 10
96.7277458013
 20
298.4303731146
 30
0.0
 10
96.7266143953
 20
298.4345306068
 30
0.0
 10
96.7256365821
 20
298.4364260652
 30
0.0
 10
96.7250229251
 20
298.4368615029
 30
0.0
 10
96.7247698635
 20
298.4368615029
 30
0.0
  0
SPLINE
  5
44D
100
AcDbEntity
  8
ALL_AXES
100
AcDbSpline
 62
7
  6
CONTINUOUS
 70
0
 71
3
 72
9
 73
5
 74
0
 42
0.0000001
 43
0.0000001
 44
0.0000000001
 40
0.0
 40
0.0
 40
0.0
 40
0.0
 40
0.5227142232
 40
1.0
 40
1.0
 40
1.0
 40
1.0
 10
96.7467605685
 20
297.6868615029
 30
0.0
 10
96.7467605685
 20
297.6139311838
 30
0.0
 10
96.7461741756
 20
297.4744083226
 30
0.0
 10
96.7443306864
 20
297.3348950533
 30
0.0
 10
96.7430177449
 20
297.2683159624
 30
0.0
  0
SPLINE
  5
44E
100
AcDbEntity
  8
ALL_AXES
100
AcDbSpline
 62
7
  6
CONTINUOUS
 70
0
 71
3
 72
20
 73
16
 74
0
 42
0.0000001
 43
0.0000001
 44
0.0000000001
 40
0.0
 40
0.0
 40
0.0
 40
0.0
 40
0.2188608685
 40
0.4156760628
 40
0.5875135617
 40
0.7318202414
 40
0.7929686955
 40
0.8464665665
 40
0.8921296114
 40
0.929792945
 40
0.9593423341
 40
0.9807157804
 40
0.9939688548
 40
0.9977204967
 40
1.0
 40
1.0
 40
1.0
 40
1.0
 10
96.7430177449
 20
297.2683159624
 30
0.0
 10
96.7425390305
 20
297.2440404178
 30
0.0
 10
96.7415165228
 20
297.197936689
 30
0.0
 10
96.7396704895
 20
297.1327839808
 30
0.0
 10
96.7376155674
 20
297.0759131302
 30
0.0
 10
96.7356730549
 20
297.0341003792
 30
0.0
 10
96.7339877618
 20
297.0054212566
 30
0.0
 10
96.7327637434
 20
296.9876788366
 30
0.0
 10
96.7315161623
 20
296.9725491985
 30
0.0
 10
96.730253817
 20
296.9600929782
 30
0.0
 10
96.7289864999
 20
296.9503365697
 30
0.0
 10
96.7277440732
 20
296.9433424281
 30
0.0
 10
96.7266133561
 20
296.9391896512
 30
0.0
 10
96.7256359805
 20
296.9372963137
 30
0.0
 10
96.7250227499
 20
296.9368615029
 30
0.0
 10
96.7247698635
 20
296.9368615029
 30
0.0
  0
LINE
  5
44F
100
AcDbEntity
  8
0
100
AcDbLine
 62
7
  6
CONTINUOUS
 10
96.7100615745
 20
298.2312752539
 30
0.0
 11
96.7098103167
 21
298.2375615715
 31
0.0
  0
SPLINE
  5
450
100
AcDbEntity
  8
0
100
AcDbSpline
 62
7
  6
CONTINUOUS
 70
0
 71
3
 72
9
 73
5
 74
0
 42
0.0000001
 43
0.0000001
 44
0.0000000001
 40
0.0
 40
0.0
 40
0.0
 40
0.0
 40
0.2989442369
 40
1.0
 40
1.0
 40
1.0
 40
1.0
 10
96.7098103167
 20
298.2375615715
 30
0.0
 10
96.7096149002
 20
298.2425506569
 30
0.0
 10
96.7090023664
 20
298.2592404709
 30
0.0
 10
96.7085131979
 20
298.275940093
 30
0.0
 10
96.7085150399
 20
298.2876489959
 30
0.0
  0
SPLINE
  5
451
100
AcDbEntity
  8
0
100
AcDbSpline
 62
7
  6
CONTINUOUS
 70
0
 71
3
 72
9
 73
5
 74
0
 42
0.0000001
 43
0.0000001
 44
0.0000000001
 40
0.0
 40
0.0
 40
0.0
 40
0.0
 40
0.6380220009
 40
1.0
 40
1.0
 40
1.0
 40
1.0
 10
96.712485341
 20
297.0633958256
 30
0.0
 10
96.7122722264
 20
297.0629891317
 30
0.0
 10
96.7119389093
 20
297.0623750485
 30
0.0
 10
96.7113018984
 20
297.0618662376
 30
0.0
 10
96.7110414032
 20
297.0618665854
 30
0.0
  0
SPLINE
  5
452
100
AcDbEntity
  8
0
100
AcDbSpline
 62
7
  6
CONTINUOUS
 70
0
 71
3
 72
9
 73
5
 74
0
 42
0.0000001
 43
0.0000001
 44
0.0000000001
 40
0.0
 40
0.0
 40
0.0
 40
0.0
 40
0.2989153768
 40
1.0
 40
1.0
 40
1.0
 40
1.0
 10
108.4572205319
 20
298.2376715027
 30
0.0
 10
108.4574154812
 20
298.2426490599
 30
0.0
 10
108.4580268929
 20
298.2593019205
 30
0.0
 10
108.4585117281
 20
298.2759645998
 30
0.0
 10
108.4585109658
 20
298.2876480547
 30
0.0
  0
SPLINE
  5
453
100
AcDbEntity
  8
0
100
AcDbSpline
 62
7
  6
CONTINUOUS
 70
0
 71
3
 72
11
 73
7
 74
0
 42
0.0000001
 43
0.0000001
 44
0.0000000001
 40
0.0
 40
0.0
 40
0.0
 40
0.0
 40
0.3469530267
 40
0.6485764468
 40
0.8741294464
 40
1.0
 40
1.0
 40
1.0
 40
1.0
 10
108.4164917615
 20
327.0070517024
 30
0.0
 10
108.4173842138
 20
327.0982898343
 30
0.0
 10
108.4221800418
 20
327.2688275866
 30
0.0
 10
108.4367933704
 20
327.4983086516
 30
0.0
 10
108.4499872104
 20
327.6694387693
 30
0.0
 10
108.4585009831
 20
327.7616276173
 30
0.0
 10
108.4585090072
 20
327.794729341
 30
0.0
  0
SPLINE
  5
454
100
AcDbEntity
  8
0
100
AcDbSpline
 62
7
  6
CONTINUOUS
 70
0
 71
3
 72
9
 73
5
 74
0
 42
0.0000001
 43
0.0000001
 44
0.0000000001
 40
0.0
 40
0.0
 40
0.0
 40
0.0
 40
0.3605817035
 40
1.0
 40
1.0
 40
1.0
 40
1.0
 10
96.7110414039
 20
298.3118564203
 30
0.0
 10
96.7113077566
 20
298.3118560651
 30
0.0
 10
96.7119571281
 20
298.311325966
 30
0.0
 10
96.712295062
 20
298.3106949162
 30
0.0
 10
96.7125121109
 20
298.3102754183
 30
0.0
  0
SPLINE
  5
455
100
AcDbEntity
  8
0
100
AcDbSpline
 62
7
  6
CONTINUOUS
 70
0
 71
3
 72
14
 73
10
 74
0
 42
0.0000001
 43
0.0000001
 44
0.0000000001
 40
0.0
 40
0.0
 40
0.0
 40
0.0
 40
0.0318737232
 40
0.097371006
 40
0.1942546476
 40
0.3190955438
 40
0.4675346715
 40
0.6343999186
 40
1.0
 40
1.0
 40
1.0
 40
1.0
 10
96.7125121109
 20
298.3102754183
 30
0.0
 10
96.7155709321
 20
298.304363529
 30
0.0
 10
96.7190915136
 20
298.2839257136
 30
0.0
 10
96.7266864072
 20
298.2443746042
 30
0.0
 10
96.7344579477
 20
298.1847242705
 30
0.0
 10
96.7431396587
 20
298.1079712665
 30
0.0
 10
96.7510387878
 20
298.0163589531
 30
0.0
 10
96.7599426273
 20
297.8744429928
 30
0.0
 10
96.7626896472
 20
297.7632114575
 30
0.0
 10
96.7626896472
 20
297.6868615029
 30
0.0
  0
SPLINE
  5
456
100
AcDbEntity
  8
0
100
AcDbSpline
 62
7
  6
CONTINUOUS
 70
0
 71
3
 72
9
 73
5
 74
0
 42
0.0000001
 43
0.0000001
 44
0.0000000001
 40
0.0
 40
0.0
 40
0.0
 40
0.0
 40
0.2065374466
 40
1.0
 40
1.0
 40
1.0
 40
1.0
 10
96.7085153414
 20
297.086074951
 30
0.0
 10
96.7085151624
 20
297.0888170182
 30
0.0
 10
96.7086259021
 20
297.1020933768
 30
0.0
 10
96.7090455324
 20
297.1153649106
 30
0.0
 10
96.7094235485
 20
297.125892427
 30
0.0
  0
SPLINE
  5
457
100
AcDbEntity
  8
0
100
AcDbSpline
 62
7
  6
CONTINUOUS
 70
0
 71
3
 72
11
 73
7
 74
0
 42
0.0000001
 43
0.0000001
 44
0.0000000001
 40
0.0
 40
0.0
 40
0.0
 40
0.0
 40
0.1258732113
 40
0.3514564054
 40
0.6531040659
 40
1.0
 40
1.0
 40
1.0
 40
1.0
 10
108.4585103497
 20
326.0789911942
 30
0.0
 10
108.4585000512
 20
326.1121376472
 30
0.0
 10
108.4499716697
 20
326.204457347
 30
0.0
 10
108.4367608084
 20
326.375830356
 30
0.0
 10
108.4221430801
 20
326.6056169665
 30
0.0
 10
108.4173614277
 20
326.776373642
 30
0.0
 10
108.4164814094
 20
326.8677182309
 30
0.0
  0
SPLINE
  5
458
100
AcDbEntity
  8
0
100
AcDbSpline
 62
7
  6
CONTINUOUS
 70
0
 71
3
 72
9
 73
5
 74
0
 42
0.0000001
 43
0.0000001
 44
0.0000000001
 40
0.0
 40
0.0
 40
0.0
 40
0.0
 40
0.200290982
 40
1.0
 40
1.0
 40
1.0
 40
1.0
 10
108.4585112672
 20
297.0860740098
 30
0.0
 10
108.4585117935
 20
297.0894192749
 30
0.0
 10
108.4583431424
 20
297.106121244
 30
0.0
 10
108.4577387579
 20
297.122814908
 30
0.0
 10
108.4572159904
 20
297.1361614344
 30
0.0
  0
SPLINE
  5
459
100
AcDbEntity
  8
0
100
AcDbSpline
 62
7
  6
CONTINUOUS
 70
0
 71
3
 72
10
 73
6
 74
0
 42
0.0000001
 43
0.0000001
 44
0.0000000001
 40
0.0
 40
0.0
 40
0.0
 40
0.0
 40
0.076551578
 40
0.2641520748
 40
1.0
 40
1.0
 40
1.0
 40
1.0
 10
96.7110414032
 20
297.0618665854
 30
0.0
 10
96.710412316
 20
297.0618674253
 30
0.0
 10
96.7094619193
 20
297.064610114
 30
0.0
 10
96.7086817171
 20
297.0718550902
 30
0.0
 10
96.7085157359
 20
297.0800278793
 30
0.0
 10
96.7085153414
 20
297.086074951
 30
0.0
  0
SPLINE
  5
45A
100
AcDbEntity
  8
0
100
AcDbSpline
 62
7
  6
CONTINUOUS
 70
0
 71
3
 72
10
 73
6
 74
0
 42
0.0000001
 43
0.0000001
 44
0.0000000001
 40
0.0
 40
0.0
 40
0.0
 40
0.0
 40
0.7357650761
 40
0.9235029301
 40
1.0
 40
1.0
 40
1.0
 40
1.0
 10
96.7085150399
 20
298.2876489959
 30
0.0
 10
96.7085159911
 20
298.2936953307
 30
0.0
 10
96.7086895997
 20
298.3018686568
 30
0.0
 10
96.7094582278
 20
298.3091130184
 30
0.0
 10
96.7104127705
 20
298.3118572587
 30
0.0
 10
96.7110414039
 20
298.3118564203
 30
0.0
  0
SPLINE
  5
45B
100
AcDbEntity
  8
0
100
AcDbSpline
 62
7
  6
CONTINUOUS
 70
0
 71
3
 72
9
 73
5
 74
0
 42
0.0000001
 43
0.0000001
 44
0.0000000001
 40
0.0
 40
0.0
 40
0.0
 40
0.0
 40
0.2732616839
 40
1.0
 40
1.0
 40
1.0
 40
1.0
 10
110.3017482994
 20
331.8551114073
 30
0.0
 10
110.3094623462
 20
331.8664402237
 30
0.0
 10
110.3342958643
 20
331.9101845475
 30
0.0
 10
110.3456110736
 20
331.9610785956
 30
0.0
 10
110.3462133137
 20
331.997524104
 30
0.0
  0
SPLINE
  5
45C
100
AcDbEntity
  8
0
100
AcDbSpline
 62
7
  6
CONTINUOUS
 70
0
 71
3
 72
8
 73
4
 74
0
 42
0.0000001
 43
0.0000001
 44
0.0000000001
 40
0.0
 40
0.0
 40
0.0
 40
0.0
 40
1.0
 40
1.0
 40
1.0
 40
1.0
 10
62.4960789547
 20
331.1246622069
 30
0.0
 10
62.4633374248
 20
331.1267615721
 30
0.0
 10
62.4297468944
 20
331.1408990669
 30
0.0
 10
62.4053624964
 20
331.1628493801
 30
0.0
  0
SPLINE
  5
45D
100
AcDbEntity
  8
0
100
AcDbSpline
 62
7
  6
CONTINUOUS
 70
0
 71
3
 72
8
 73
4
 74
0
 42
0.0000001
 43
0.0000001
 44
0.0000000001
 40
0.0
 40
0.0
 40
0.0
 40
0.0
 40
1.0
 40
1.0
 40
1.0
 40
1.0
 10
62.3880415992
 20
331.181320319
 30
0.0
 10
62.3676896842
 20
331.2070787711
 30
0.0
 10
62.3557334028
 20
331.2415267557
 30
0.0
 10
62.3557334028
 20
331.2743550712
 30
0.0
  0
SPLINE
  5
45E
100
AcDbEntity
  8
0
100
AcDbSpline
 62
7
  6
CONTINUOUS
 70
0
 71
3
 72
9
 73
5
 74
0
 42
0.0000001
 43
0.0000001
 44
0.0000000001
 40
0.0
 40
0.0
 40
0.0
 40
0.0
 40
0.2443561722
 40
1.0
 40
1.0
 40
1.0
 40
1.0
 10
97.4793498206
 20
331.9979746207
 30
0.0
 10
97.4792388484
 20
331.9857288226
 30
0.0
 10
97.4751805298
 20
331.9357074693
 30
0.0
 10
97.456110239
 20
331.8869401325
 30
0.0
 10
97.4348481903
 20
331.8556018979
 30
0.0
  0
SPLINE
  5
45F
100
AcDbEntity
  8
0
100
AcDbSpline
 62
7
  6
CONTINUOUS
 70
0
 71
3
 72
9
 73
5
 74
0
 42
0.0000001
 43
0.0000001
 44
0.0000000001
 40
0.0
 40
0.0
 40
0.0
 40
0.0
 40
0.5000743532
 40
1.0
 40
1.0
 40
1.0
 40
1.0
 10
99.7903818481
 20
333.9763675785
 30
0.0
 10
99.7903818481
 20
334.0018792935
 30
0.0
 10
99.8116843546
 20
334.0550346578
 30
0.0
 10
99.8648347244
 20
334.0763675785
 30
0.0
 10
99.890338853
 20
334.0763675785
 30
0.0
  0
SPLINE
  5
460
100
AcDbEntity
  8
0
100
AcDbSpline
 62
7
  6
CONTINUOUS
 70
0
 71
3
 72
9
 73
5
 74
0
 42
0.0000001
 43
0.0000001
 44
0.0000000001
 40
0.0
 40
0.0
 40
0.0
 40
0.0
 40
0.4999222759
 40
1.0
 40
1.0
 40
1.0
 40
1.0
 10
99.890338853
 20
333.4263675785
 30
0.0
 10
99.8648348964
 20
333.4263675785
 30
0.0
 10
99.8116845562
 20
333.4477002974
 30
0.0
 10
99.7903818481
 20
333.5008556915
 30
0.0
 10
99.7903818481
 20
333.5263675785
 30
0.0
  0
SPLINE
  5
461
100
AcDbEntity
  8
0
100
AcDbSpline
 62
7
  6
CONTINUOUS
 70
0
 71
3
 72
9
 73
5
 74
0
 42
0.0000001
 43
0.0000001
 44
0.0000000001
 40
0.0
 40
0.0
 40
0.0
 40
0.0
 40
0.5000743532
 40
1.0
 40
1.0
 40
1.0
 40
1.0
 10
126.2987243562
 20
333.9763675784
 30
0.0
 10
126.2987243562
 20
334.0018792934
 30
0.0
 10
126.3200268627
 20
334.0550346578
 30
0.0
 10
126.3731772325
 20
334.0763675784
 30
0.0
 10
126.3986813611
 20
334.0763675784
 30
0.0
  0
SPLINE
  5
462
100
AcDbEntity
  8
0
100
AcDbSpline
 62
7
  6
CONTINUOUS
 70
0
 71
3
 72
9
 73
5
 74
0
 42
0.0000001
 43
0.0000001
 44
0.0000000001
 40
0.0
 40
0.0
 40
0.0
 40
0.0
 40
0.4999222759
 40
1.0
 40
1.0
 40
1.0
 40
1.0
 10
126.3986813611
 20
333.4263675784
 30
0.0
 10
126.3731774044
 20
333.4263675784
 30
0.0
 10
126.3200270643
 20
333.4477002973
 30
0.0
 10
126.2987243562
 20
333.5008556915
 30
0.0
 10
126.2987243562
 20
333.5263675784
 30
0.0
  0
SPLINE
  5
463
100
AcDbEntity
  8
0
100
AcDbSpline
 62
7
  6
CONTINUOUS
 70
0
 71
3
 72
9
 73
5
 74
0
 42
0.0000001
 43
0.0000001
 44
0.0000000001
 40
0.0
 40
0.0
 40
0.0
 40
0.0
 40
0.3065575935
 40
1.0
 40
1.0
 40
1.0
 40
1.0
 10
110.3471992393
 20
332.0754651848
 30
0.0
 10
110.3471992393
 20
332.0674968711
 30
0.0
 10
110.3469195045
 20
332.0415047216
 30
0.0
 10
110.3465087202
 20
332.0155153492
 30
0.0
 10
110.3462109158
 20
331.9974932467
 30
0.0
  0
SPLINE
  5
464
100
AcDbEntity
  8
0
100
AcDbSpline
 62
9
  6
CONTINUOUS
 70
0
 71
3
 72
13
 73
9
 74
0
 42
0.0000001
 43
0.0000001
 44
0.0000000001
 40
0.0
 40
0.0
 40
0.0
 40
0.0
 40
0.381757355
 40
0.7065881994
 40
0.8306281343
 40
0.9229571099
 40
0.9800813058
 40
1.0
 40
1.0
 40
1.0
 40
1.0
 10
62.3425389491
 20
331.3803783918
 30
0.0
 10
62.3425390038
 20
331.3668677958
 30
0.0
 10
62.342721669
 20
331.3419514682
 30
0.0
 10
62.3430940042
 20
331.312271381
 30
0.0
 10
62.3439534719
 20
331.2935534634
 30
0.0
 10
62.3440768963
 20
331.2831264531
 30
0.0
 10
62.3452456634
 20
331.2785481667
 30
0.0
 10
62.3449457539
 20
331.2743517571
 30
0.0
 10
62.3456506833
 20
331.2743540585
 30
0.0
  0
SPLINE
  5
465
100
AcDbEntity
  8
0
100
AcDbSpline
 62
7
  6
CONTINUOUS
 70
0
 71
3
 72
13
 73
9
 74
0
 42
0.0000001
 43
0.0000001
 44
0.0000000001
 40
0.0
 40
0.0
 40
0.0
 40
0.0
 40
0.3712122634
 40
0.6913483935
 40
0.8157548422
 40
0.9110079868
 40
0.9741108826
 40
1.0
 40
1.0
 40
1.0
 40
1.0
 10
62.6493415159
 20
334.4412657328
 30
0.0
 10
62.6300810764
 20
334.4412657328
 30
0.0
 10
62.5943784419
 20
334.4457161834
 30
0.0
 10
62.5522315186
 20
334.4498383777
 30
0.0
 10
62.5241409589
 20
334.4490789751
 30
0.0
 10
62.5096926226
 20
334.4461908991
 30
0.0
 10
62.5004429146
 20
334.4440248914
 30
0.0
 10
62.4963511308
 20
334.4412654368
 30
0.0
 10
62.4950078676
 20
334.4412654368
 30
0.0
  0
SPLINE
  5
466
100
AcDbEntity
  8
0
100
AcDbSpline
 62
7
  6
CONTINUOUS
 70
0
 71
3
 72
9
 73
5
 74
0
 42
0.0000001
 43
0.0000001
 44
0.0000000001
 40
0.0
 40
0.0
 40
0.0
 40
0.0
 40
0.2818831326
 40
1.0
 40
1.0
 40
1.0
 40
1.0
 10
95.2140476986
 20
331.743456527
 30
0.0
 10
95.2035048473
 20
331.743456527
 30
0.0
 10
95.1661489507
 20
331.7463873496
 30
0.0
 10
95.1295833519
 20
331.7582808884
 30
0.0
 10
95.1060283264
 20
331.7711862228
 30
0.0
  0
SPLINE
  5
467
100
AcDbEntity
  8
0
100
AcDbSpline
 62
7
  6
CONTINUOUS
 70
0
 71
3
 72
9
 73
5
 74
0
 42
0.0000001
 43
0.0000001
 44
0.0000000001
 40
0.0
 40
0.0
 40
0.0
 40
0.0
 40
0.5025935504
 40
1.0
 40
1.0
 40
1.0
 40
1.0
 10
95.106028326
 20
331.771186223
 30
0.0
 10
95.0662379433
 20
331.7929865898
 30
0.0
 10
94.9980998527
 20
331.8594979276
 30
0.0
 10
94.9742670762
 20
331.9526855543
 30
0.0
 10
94.9771835621
 20
331.9974935123
 30
0.0
  0
SPLINE
  5
468
100
AcDbEntity
  8
0
100
AcDbSpline
 62
9
  6
CONTINUOUS
 70
0
 71
3
 72
13
 73
9
 74
0
 42
0.0000001
 43
0.0000001
 44
0.0000000001
 40
0.0
 40
0.0
 40
0.0
 40
0.0
 40
0.0199186661
 40
0.0770428427
 40
0.1693718094
 40
0.2934117443
 40
0.6182426108
 40
1.0
 40
1.0
 40
1.0
 40
1.0
 10
62.4918961635
 20
331.2743540611
 30
0.0
 10
62.492601092
 20
331.2743517556
 30
0.0
 10
62.4923011849
 20
331.2785481718
 30
0.0
 10
62.4934699502
 20
331.2831264479
 30
0.0
 10
62.4935933755
 20
331.2935534626
 30
0.0
 10
62.4944528429
 20
331.3122713788
 30
0.0
 10
62.4948251784
 20
331.3419514712
 30
0.0
 10
62.4950078436
 20
331.3668678014
 30
0.0
 10
62.4950078982
 20
331.3803783992
 30
0.0
  0
SPLINE
  5
469
100
AcDbEntity
  8
0
100
AcDbSpline
 62
7
  6
CONTINUOUS
 70
0
 71
3
 72
9
 73
5
 74
0
 42
0.0000001
 43
0.0000001
 44
0.0000000001
 40
0.0
 40
0.0
 40
0.0
 40
0.0
 40
0.5000719708
 40
1.0
 40
1.0
 40
1.0
 40
1.0
 10
62.4818134446
 20
331.2743550712
 30
0.0
 10
62.4818134446
 20
331.2375706218
 30
0.0
 10
62.5111109537
 20
331.1611810526
 30
0.0
 10
62.5854604969
 20
331.1270152904
 30
0.0
 10
62.6221589965
 20
331.1246622069
 30
0.0
  0
SPLINE
  5
46A
100
AcDbEntity
  8
0
100
AcDbSpline
 62
7
  6
CONTINUOUS
 70
0
 71
3
 72
9
 73
5
 74
0
 42
0.0000001
 43
0.0000001
 44
0.0000000001
 40
0.0
 40
0.0
 40
0.0
 40
0.0
 40
0.2646601239
 40
1.0
 40
1.0
 40
1.0
 40
1.0
 10
97.4348481903
 20
331.8556018979
 30
0.0
 10
97.4296331381
 20
331.8479154076
 30
0.0
 10
97.4083670114
 20
331.8199494413
 30
0.0
 10
97.3813051694
 20
331.7964964582
 30
0.0
 10
97.3595310738
 20
331.7826424283
 30
0.0
  0
SPLINE
  5
46B
100
AcDbEntity
  8
0
100
AcDbSpline
 62
7
  6
CONTINUOUS
 70
0
 71
3
 72
9
 73
5
 74
0
 42
0.0000001
 43
0.0000001
 44
0.0000000001
 40
0.0
 40
0.0
 40
0.0
 40
0.0
 40
0.5000743532
 40
1.0
 40
1.0
 40
1.0
 40
1.0
 10
101.0398444092
 20
333.5263675785
 30
0.0
 10
101.0398444092
 20
333.5008558635
 30
0.0
 10
101.0185419027
 20
333.4477004992
 30
0.0
 10
100.9653915329
 20
333.4263675785
 30
0.0
 10
100.9398874043
 20
333.4263675785
 30
0.0
  0
SPLINE
  5
46C
100
AcDbEntity
  8
0
100
AcDbSpline
 62
7
  6
CONTINUOUS
 70
0
 71
3
 72
9
 73
5
 74
0
 42
0.0000001
 43
0.0000001
 44
0.0000000001
 40
0.0
 40
0.0
 40
0.0
 40
0.0
 40
0.4999222759
 40
1.0
 40
1.0
 40
1.0
 40
1.0
 10
100.9398874043
 20
334.0763675785
 30
0.0
 10
100.9653913609
 20
334.0763675785
 30
0.0
 10
101.0185417011
 20
334.0550348596
 30
0.0
 10
101.0398444092
 20
334.0018794655
 30
0.0
 10
101.0398444092
 20
333.9763675785
 30
0.0
  0
SPLINE
  5
46D
100
AcDbEntity
  8
0
100
AcDbSpline
 62
7
  6
CONTINUOUS
 70
0
 71
3
 72
9
 73
5
 74
0
 42
0.0000001
 43
0.0000001
 44
0.0000000001
 40
0.0
 40
0.0
 40
0.0
 40
0.0
 40
0.4999222759
 40
1.0
 40
1.0
 40
1.0
 40
1.0
 10
127.298294405
 20
334.0763675784
 30
0.0
 10
127.3237983617
 20
334.0763675784
 30
0.0
 10
127.3769487019
 20
334.0550348596
 30
0.0
 10
127.3982514099
 20
334.0018794654
 30
0.0
 10
127.3982514099
 20
333.9763675784
 30
0.0
  0
SPLINE
  5
46E
100
AcDbEntity
  8
0
100
AcDbSpline
 62
7
  6
CONTINUOUS
 70
0
 71
3
 72
9
 73
5
 74
0
 42
0.0000001
 43
0.0000001
 44
0.0000000001
 40
0.0
 40
0.0
 40
0.0
 40
0.0
 40
0.5000743532
 40
1.0
 40
1.0
 40
1.0
 40
1.0
 10
127.3982514099
 20
333.5263675784
 30
0.0
 10
127.3982514099
 20
333.5008558634
 30
0.0
 10
127.3769489034
 20
333.4477004991
 30
0.0
 10
127.3237985336
 20
333.4263675784
 30
0.0
 10
127.298294405
 20
333.4263675784
 30
0.0
  0
SPLINE
  5
46F
100
AcDbEntity
  8
0
100
AcDbSpline
 62
7
  6
CONTINUOUS
 70
0
 71
3
 72
9
 73
5
 74
0
 42
0.0000001
 43
0.0000001
 44
0.0000000001
 40
0.0
 40
0.0
 40
0.0
 40
0.0
 40
0.5423564019
 40
1.0
 40
1.0
 40
1.0
 40
1.0
 10
71.4800688362
 20
334.5663675786
 30
0.0
 10
71.4278432071
 20
334.5663675786
 30
0.0
 10
71.3291997918
 20
334.5984411543
 30
0.0
 10
71.2651530241
 20
334.6764139386
 30
0.0
 10
71.24655943
 20
334.7163675786
 30
0.0
  0
SPLINE
  5
470
100
AcDbEntity
  8
0
100
AcDbSpline
 62
9
  6
CONTINUOUS
 70
0
 71
3
 72
9
 73
5
 74
0
 42
0.0000001
 43
0.0000001
 44
0.0000000001
 40
0.0
 40
0.0
 40
0.0
 40
0.0
 40
0.2127655014
 40
1.0
 40
1.0
 40
1.0
 40
1.0
 10
108.1951313097
 20
332.3502995918
 30
0.0
 10
108.1956082468
 20
332.3426567989
 30
0.0
 10
108.1974905701
 20
332.3067135058
 30
0.0
 10
108.1985241666
 20
332.2707318225
 30
0.0
 10
108.199154711
 20
332.2424054213
 30
0.0
  0
SPLINE
  5
471
100
AcDbEntity
  8
0
100
AcDbSpline
 62
9
  6
CONTINUOUS
 70
0
 71
3
 72
9
 73
5
 74
0
 42
0.0000001
 43
0.0000001
 44
0.0000000001
 40
0.0
 40
0.0
 40
0.0
 40
0.0
 40
0.3065738277
 40
1.0
 40
1.0
 40
1.0
 40
1.0
 10
108.1995881133
 20
332.2209948947
 30
0.0
 10
108.1997962444
 20
332.2095988629
 30
0.0
 10
108.2003470775
 20
332.1724248984
 30
0.0
 10
108.2006383453
 20
332.1352439226
 30
0.0
 10
108.2004310286
 20
332.109464263
 30
0.0
  0
SPLINE
  5
472
100
AcDbEntity
  8
0
100
AcDbSpline
 62
9
  6
CONTINUOUS
 70
0
 71
3
 72
9
 73
5
 74
0
 42
0.0000001
 43
0.0000001
 44
0.0000000001
 40
0.0
 40
0.0
 40
0.0
 40
0.0
 40
0.2882562375
 40
1.0
 40
1.0
 40
1.0
 40
1.0
 10
108.1995880114
 20
332.2209953343
 30
0.0
 10
108.1883522783
 20
332.2213290884
 30
0.0
 10
108.1493820364
 20
332.2228823811
 30
0.0
 10
108.110540715
 20
332.2268182998
 30
0.0
 10
108.0830055587
 20
332.2303030308
 30
0.0
  0
SPLINE
  5
473
100
AcDbEntity
  8
0
100
AcDbSpline
 62
9
  6
CONTINUOUS
 70
0
 71
3
 72
9
 73
5
 74
0
 42
0.0000001
 43
0.0000001
 44
0.0000000001
 40
0.0
 40
0.0
 40
0.0
 40
0.0
 40
0.2014196349
 40
1.0
 40
1.0
 40
1.0
 40
1.0
 10
108.0439004997
 20
332.1537817056
 30
0.0
 10
108.0457936486
 20
332.1592396297
 30
0.0
 10
108.0563098002
 20
332.185961701
 30
0.0
 10
108.0710495079
 20
332.2107667835
 30
0.0
 10
108.0830055462
 20
332.2303027265
 30
0.0
  0
SPLINE
  5
474
100
AcDbEntity
  8
0
100
AcDbSpline
 62
7
  6
CONTINUOUS
 70
0
 71
3
 72
9
 73
5
 74
0
 42
0.0000001
 43
0.0000001
 44
0.0000000001
 40
0.0
 40
0.0
 40
0.0
 40
0.0
 40
0.5189149314
 40
1.0
 40
1.0
 40
1.0
 40
1.0
 10
107.8456611654
 20
331.9979746206
 30
0.0
 10
107.8441241516
 20
331.9549148679
 30
0.0
 10
107.86367008
 20
331.8696372923
 30
0.0
 10
107.9216173955
 20
331.8052211151
 30
0.0
 10
107.9545702262
 20
331.782642428
 30
0.0
  0
SPLINE
  5
475
100
AcDbEntity
  8
0
100
AcDbSpline
 62
9
  6
CONTINUOUS
 70
0
 71
3
 72
9
 73
5
 74
0
 42
0.0000001
 43
0.0000001
 44
0.0000000001
 40
0.0
 40
0.0
 40
0.0
 40
0.0
 40
0.2720098577
 40
1.0
 40
1.0
 40
1.0
 40
1.0
 10
108.0439004957
 20
332.1537816721
 30
0.0
 10
108.0329949861
 20
332.1606751112
 30
0.0
 10
107.9947986522
 20
332.1886935419
 30
0.0
 10
107.9640724296
 20
332.2283370679
 30
0.0
 10
107.9520556602
 20
332.2607074199
 30
0.0
  0
SPLINE
  5
476
100
AcDbEntity
  8
0
100
AcDbSpline
 62
9
  6
CONTINUOUS
 70
0
 71
3
 72
9
 73
5
 74
0
 42
0.0000001
 43
0.0000001
 44
0.0000000001
 40
0.0
 40
0.0
 40
0.0
 40
0.0
 40
0.2557288751
 40
1.0
 40
1.0
 40
1.0
 40
1.0
 10
108.2004309042
 20
332.1094642595
 30
0.0
 10
108.1864569986
 20
332.1093392873
 30
0.0
 10
108.131845862
 20
332.1128374286
 30
0.0
 10
108.0782793291
 20
332.1320506319
 30
0.0
 10
108.0439004994
 20
332.1537817026
 30
0.0
  0
SPLINE
  5
477
100
AcDbEntity
  8
0
100
AcDbSpline
 62
7
  6
CONTINUOUS
 70
0
 71
3
 72
9
 73
5
 74
0
 42
0.0000001
 43
0.0000001
 44
0.0000000001
 40
0.0
 40
0.0
 40
0.0
 40
0.0
 40
0.2769093358
 40
1.0
 40
1.0
 40
1.0
 40
1.0
 10
110.0956564774
 20
331.7434565269
 30
0.0
 10
110.1062875282
 20
331.7434565269
 30
0.0
 10
110.1446425004
 20
331.7464895168
 30
0.0
 10
110.1821188381
 20
331.7584535813
 30
0.0
 10
110.2067874341
 20
331.7711862228
 30
0.0
  0
SPLINE
  5
478
100
AcDbEntity
  8
0
100
AcDbSpline
 62
7
  6
CONTINUOUS
 70
0
 71
3
 72
9
 73
5
 74
0
 42
0.0000001
 43
0.0000001
 44
0.0000000001
 40
0.0
 40
0.0
 40
0.0
 40
0.0
 40
0.2110868978
 40
1.0
 40
1.0
 40
1.0
 40
1.0
 10
107.9545702262
 20
331.782642428
 30
0.0
 10
107.9623264118
 20
331.7773280292
 30
0.0
 10
108.0006140443
 20
331.7545241982
 30
0.0
 10
108.0461415612
 20
331.7434565269
 30
0.0
 10
108.0812811839
 20
331.7434565269
 30
0.0
  0
SPLINE
  5
479
100
AcDbEntity
  8
0
100
AcDbSpline
 62
7
  6
CONTINUOUS
 70
0
 71
3
 72
9
 73
5
 74
0
 42
0.0000001
 43
0.0000001
 44
0.0000000001
 40
0.0
 40
0.0
 40
0.0
 40
0.0
 40
0.5065130915
 40
1.0
 40
1.0
 40
1.0
 40
1.0
 10
110.3472025685
 20
332.5531867046
 30
0.0
 10
110.3472025685
 20
332.5973246079
 30
0.0
 10
110.3311646958
 20
332.6852068295
 30
0.0
 10
110.2508657539
 20
332.7541423576
 30
0.0
 10
110.2078629612
 20
332.7541423576
 30
0.0
  0
SPLINE
  5
47A
100
AcDbEntity
  8
0
100
AcDbSpline
 62
9
  6
CONTINUOUS
 70
0
 71
3
 72
9
 73
5
 74
0
 42
0.0000001
 43
0.0000001
 44
0.0000000001
 40
0.0
 40
0.0
 40
0.0
 40
0.0
 40
0.5208173282
 40
1.0
 40
1.0
 40
1.0
 40
1.0
 10
110.1918577418
 20
332.1094642617
 30
0.0
 10
110.2290486348
 20
332.1102637181
 30
0.0
 10
110.3032699116
 20
332.1357011675
 30
0.0
 10
110.3393695321
 20
332.2081821732
 30
0.0
 10
110.3397809032
 20
332.2424054217
 30
0.0
  0
SPLINE
  5
47B
100
AcDbEntity
  8
0
100
AcDbSpline
 62
9
  6
CONTINUOUS
 70
0
 71
3
 72
9
 73
5
 74
0
 42
0.0000001
 43
0.0000001
 44
0.0000000001
 40
0.0
 40
0.0
 40
0.0
 40
0.0
 40
0.3032321249
 40
1.0
 40
1.0
 40
1.0
 40
1.0
 10
110.1942188374
 20
332.2424054217
 30
0.0
 10
110.1942188374
 20
332.2289654074
 30
0.0
 10
110.1939721992
 20
332.1846484548
 30
0.0
 10
110.1935877361
 20
332.1402982812
 30
0.0
 10
110.1918577418
 20
332.1094642617
 30
0.0
  0
SPLINE
  5
47C
100
AcDbEntity
  8
0
100
AcDbSpline
 62
9
  6
CONTINUOUS
 70
0
 71
3
 72
9
 73
5
 74
0
 42
0.0000001
 43
0.0000001
 44
0.0000000001
 40
0.0
 40
0.0
 40
0.0
 40
0.0
 40
0.2126069252
 40
1.0
 40
1.0
 40
1.0
 40
1.0
 10
110.1928761083
 20
332.3502995922
 30
0.0
 10
110.1931081578
 20
332.3426560145
 30
0.0
 10
110.1939648913
 20
332.3066973784
 30
0.0
 10
110.1942188374
 20
332.2707265733
 30
0.0
 10
110.1942188374
 20
332.2424054217
 30
0.0
  0
SPLINE
  5
47D
100
AcDbEntity
  8
0
100
AcDbSpline
 62
9
  6
CONTINUOUS
 70
0
 71
3
 72
9
 73
5
 74
0
 42
0.0000001
 43
0.0000001
 44
0.0000000001
 40
0.0
 40
0.0
 40
0.0
 40
0.0
 40
0.4445842194
 40
1.0
 40
1.0
 40
1.0
 40
1.0
 10
110.3397809032
 20
332.2424054217
 30
0.0
 10
110.3391387307
 20
332.2713127963
 30
0.0
 10
110.2961087506
 20
332.3333130281
 30
0.0
 10
110.2289864165
 20
332.3493542789
 30
0.0
 10
110.1928761083
 20
332.3502995922
 30
0.0
  0
SPLINE
  5
47E
100
AcDbEntity
  8
0
100
AcDbSpline
 62
7
  6
CONTINUOUS
 70
0
 71
3
 72
9
 73
5
 74
0
 42
0.0000001
 43
0.0000001
 44
0.0000000001
 40
0.0
 40
0.0
 40
0.0
 40
0.0
 40
0.2337317184
 40
1.0
 40
1.0
 40
1.0
 40
1.0
 10
110.2067874341
 20
331.7711862228
 30
0.0
 10
110.215609225
 20
331.7757395708
 30
0.0
 10
110.2521739937
 20
331.7974008686
 30
0.0
 10
110.2834299995
 20
331.8282092298
 30
0.0
 10
110.3017482994
 20
331.8551114073
 30
0.0
  0
SPLINE
  5
47F
100
AcDbEntity
  8
0
100
AcDbSpline
 62
7
  6
CONTINUOUS
 70
0
 71
3
 72
15
 73
11
 74
0
 42
0.0000001
 43
0.0000001
 44
0.0000000001
 40
0.0
 40
0.0
 40
0.0
 40
0.0
 40
0.3108980947
 40
0.460716401
 40
0.6032462167
 40
0.734608817
 40
0.8493081679
 40
0.9399915388
 40
0.9739964711
 40
1.0
 40
1.0
 40
1.0
 40
1.0
 10
102.6641457385
 20
330.5568610252
 30
0.0
 10
102.9162354902
 20
330.3472273561
 30
0.0
 10
103.2903551073
 20
330.0372253019
 30
0.0
 10
103.7854931903
 20
329.6377449087
 30
0.0
 10
104.1372549027
 20
329.3622339587
 30
0.0
 10
104.4657984087
 20
329.1169600972
 30
0.0
 10
104.7589755663
 20
328.9169888823
 30
0.0
 10
104.9785156391
 20
328.7896656013
 30
0.0
 10
105.1274787456
 20
328.7339157285
 30
0.0
 10
105.1912050127
 20
328.723733609
 30
0.0
 10
105.2185600384
 20
328.7256582544
 30
0.0
  0
SPLINE
  5
480
100
AcDbEntity
  8
0
100
AcDbSpline
 62
9
  6
CONTINUOUS
 70
0
 71
3
 72
14
 73
10
 74
0
 42
0.0000001
 43
0.0000001
 44
0.0000000001
 40
0.0
 40
0.0
 40
0.0
 40
0.0
 40
0.380943621
 40
0.5535887413
 40
0.7049805586
 40
0.8287331505
 40
0.9209659304
 40
0.9783845633
 40
1.0
 40
1.0
 40
1.0
 40
1.0
 10
62.6493416667
 20
331.3803923475
 30
0.0
 10
62.6489480884
 20
331.3477445009
 30
0.0
 10
62.6479076471
 20
331.3002660913
 30
0.0
 10
62.6454478282
 20
331.2399812539
 30
0.0
 10
62.6433320398
 20
331.2014458658
 30
0.0
 10
62.6408892159
 20
331.1706372084
 30
0.0
 10
62.638518623
 20
331.1459162483
 30
0.0
 10
62.635870764
 20
331.1340455579
 30
0.0
 10
62.6340939894
 20
331.1246071155
 30
0.0
 10
62.6322421754
 20
331.1246621976
 30
0.0
  0
SPLINE
  5
481
100
AcDbEntity
  8
0
100
AcDbSpline
 62
7
  6
CONTINUOUS
 70
0
 71
3
 72
9
 73
5
 74
0
 42
0.0000001
 43
0.0000001
 44
0.0000000001
 40
0.0
 40
0.0
 40
0.0
 40
0.0
 40
0.2299178593
 40
1.0
 40
1.0
 40
1.0
 40
1.0
 10
74.9519967833
 20
334.6357183658
 30
0.0
 10
74.9418006912
 20
334.6256723808
 30
0.0
 10
74.8937140894
 20
334.5858994506
 30
0.0
 10
74.8292333264
 20
334.5663675786
 30
0.0
 10
74.7812913025
 20
334.5663675786
 30
0.0
  0
SPLINE
  5
482
100
AcDbEntity
  8
0
100
AcDbSpline
 62
9
  6
CONTINUOUS
 70
0
 71
3
 72
9
 73
5
 74
0
 42
0.0000001
 43
0.0000001
 44
0.0000000001
 40
0.0
 40
0.0
 40
0.0
 40
0.0
 40
0.2211403017
 40
1.0
 40
1.0
 40
1.0
 40
1.0
 10
108.0458601325
 20
332.3274516624
 30
0.0
 10
108.0474710044
 20
332.3199402398
 30
0.0
 10
108.0558356827
 20
332.2861806717
 30
0.0
 10
108.0704727419
 20
332.2542819512
 30
0.0
 10
108.0830055462
 20
332.2303027265
 30
0.0
  0
SPLINE
  5
483
100
AcDbEntity
  8
0
100
AcDbSpline
 62
9
  6
CONTINUOUS
 70
0
 71
3
 72
9
 73
5
 74
0
 42
0.0000001
 43
0.0000001
 44
0.0000000001
 40
0.0
 40
0.0
 40
0.0
 40
0.0
 40
0.2369213953
 40
1.0
 40
1.0
 40
1.0
 40
1.0
 10
108.0458601326
 20
332.3274516802
 30
0.0
 10
108.0570056437
 20
332.3318370887
 30
0.0
 10
108.105091659
 20
332.3475938473
 30
0.0
 10
108.1566280063
 20
332.352672827
 30
0.0
 10
108.1951313345
 20
332.3502996062
 30
0.0
  0
SPLINE
  5
484
100
AcDbEntity
  8
0
100
AcDbSpline
 62
9
  6
CONTINUOUS
 70
0
 71
3
 72
9
 73
5
 74
0
 42
0.0000001
 43
0.0000001
 44
0.0000000001
 40
0.0
 40
0.0
 40
0.0
 40
0.0
 40
0.2100875888
 40
1.0
 40
1.0
 40
1.0
 40
1.0
 10
107.9520556651
 20
332.2607075058
 30
0.0
 10
107.9566896962
 20
332.267384426
 30
0.0
 10
107.9822953497
 20
332.2966850067
 30
0.0
 10
108.0174236171
 20
332.3162628295
 30
0.0
 10
108.0458601326
 20
332.3274517037
 30
0.0
  0
SPLINE
  5
485
100
AcDbEntity
  8
0
100
AcDbSpline
 62
7
  6
CONTINUOUS
 70
0
 71
3
 72
8
 73
4
 74
0
 42
0.0000001
 43
0.0000001
 44
0.0000000001
 40
0.0
 40
0.0
 40
0.0
 40
0.0
 40
1.0
 40
1.0
 40
1.0
 40
1.0
 10
101.0153493244
 20
333.4761904277
 30
0.0
 10
101.0240059927
 20
333.4911924575
 30
0.0
 10
101.0288490567
 20
333.5090471049
 30
0.0
 10
101.0288490567
 20
333.5263675785
 30
0.0
  0
SPLINE
  5
486
100
AcDbEntity
  8
0
100
AcDbSpline
 62
9
  6
CONTINUOUS
 70
0
 71
3
 72
16
 73
12
 74
0
 42
0.0000001
 43
0.0000001
 44
0.0000000001
 40
0.0
 40
0.0
 40
0.0
 40
0.0
 40
0.0048347041
 40
0.0191995498
 40
0.0429316496
 40
0.0758476654
 40
0.1683038717
 40
0.2927708876
 40
0.4445645874
 40
0.6169946366
 40
1.0
 40
1.0
 40
1.0
 40
1.0
 10
142.6810322022
 20
331.1246618724
 30
0.0
 10
142.6814436504
 20
331.1246859164
 30
0.0
 10
142.6806437176
 20
331.127255448
 30
0.0
 10
142.6814955444
 20
331.1300213722
 30
0.0
 10
142.6810552275
 20
331.1365759201
 30
0.0
 10
142.6813080174
 20
331.1489876962
 30
0.0
 10
142.6809964423
 20
331.1705027606
 30
0.0
 10
142.6808525419
 20
331.201834645
 30
0.0
 10
142.6804771997
 20
331.2401191259
 30
0.0
 10
142.6798866618
 20
331.3003910659
 30
0.0
 10
142.6793434778
 20
331.3477441802
 30
0.0
 10
142.6789499087
 20
331.3803923484
 30
0.0
  0
SPLINE
  5
487
100
AcDbEntity
  8
0
100
AcDbSpline
 62
7
  6
CONTINUOUS
 70
0
 71
3
 72
8
 73
4
 74
0
 42
0.0000001
 43
0.0000001
 44
0.0000000001
 40
0.0
 40
0.0
 40
0.0
 40
0.0
 40
1.0
 40
1.0
 40
1.0
 40
1.0
 10
127.3737563251
 20
333.4761904276
 30
0.0
 10
127.3824129934
 20
333.4911924574
 30
0.0
 10
127.3872560574
 20
333.5090471049
 30
0.0
 10
127.3872560574
 20
333.5263675784
 30
0.0
  0
SPLINE
  5
488
100
AcDbEntity
  8
0
100
AcDbSpline
 62
9
  6
CONTINUOUS
 70
0
 71
3
 72
9
 73
5
 74
0
 42
0.0000001
 43
0.0000001
 44
0.0000000001
 40
0.0
 40
0.0
 40
0.0
 40
0.0
 40
0.5000733978
 40
1.0
 40
1.0
 40
1.0
 40
1.0
 10
62.491896478
 20
331.2743550712
 30
0.0
 10
62.4918964814
 20
331.2375720084
 30
0.0
 10
62.5212110982
 20
331.1611968699
 30
0.0
 10
62.5955451231
 20
331.1270151885
 30
0.0
 10
62.6322420299
 20
331.1246622069
 30
0.0
  0
SPLINE
  5
489
100
AcDbEntity
  8
0
100
AcDbSpline
 62
9
  6
CONTINUOUS
 70
0
 71
3
 72
9
 73
5
 74
0
 42
0.0000001
 43
0.0000001
 44
0.0000000001
 40
0.0
 40
0.0
 40
0.0
 40
0.0
 40
0.2301186406
 40
1.0
 40
1.0
 40
1.0
 40
1.0
 10
97.3917158794
 20
332.2607074199
 30
0.0
 10
97.3884998208
 20
332.2505253
 30
0.0
 10
97.3698892643
 20
332.2077444448
 30
0.0
 10
97.3350002316
 20
332.1732398791
 30
0.0
 10
97.3050405749
 20
332.1537816722
 30
0.0
  0
SPLINE
  5
48A
100
AcDbEntity
  8
0
100
AcDbSpline
 62
9
  6
CONTINUOUS
 70
0
 71
3
 72
9
 73
5
 74
0
 42
0.0000001
 43
0.0000001
 44
0.0000000001
 40
0.0
 40
0.0
 40
0.0
 40
0.0
 40
0.2429010189
 40
1.0
 40
1.0
 40
1.0
 40
1.0
 10
97.3050405734
 20
332.1537817026
 30
0.0
 10
97.2940271929
 20
332.1466287279
 30
0.0
 10
97.2465095266
 20
332.1206369379
 30
0.0
 10
97.1912749096
 20
332.1090978376
 30
0.0
 10
97.1503441687
 20
332.1094642595
 30
0.0
  0
SPLINE
  5
48B
100
AcDbEntity
  8
0
100
AcDbSpline
 62
9
  6
CONTINUOUS
 70
0
 71
3
 72
9
 73
5
 74
0
 42
0.0000001
 43
0.0000001
 44
0.0000000001
 40
0.0
 40
0.0
 40
0.0
 40
0.0
 40
0.2209321282
 40
1.0
 40
1.0
 40
1.0
 40
1.0
 10
97.3042866212
 20
332.3274516624
 30
0.0
 10
97.3030592575
 20
332.3199495408
 30
0.0
 10
97.2963989071
 20
332.2861392212
 30
0.0
 10
97.2824131443
 20
332.2541753959
 30
0.0
 10
97.2702200676
 20
332.2303027265
 30
0.0
  0
SPLINE
  5
48C
100
AcDbEntity
  8
0
100
AcDbSpline
 62
9
  6
CONTINUOUS
 70
0
 71
3
 72
9
 73
5
 74
0
 42
0.0000001
 43
0.0000001
 44
0.0000000001
 40
0.0
 40
0.0
 40
0.0
 40
0.0
 40
0.2004950632
 40
1.0
 40
1.0
 40
1.0
 40
1.0
 10
97.3050405732
 20
332.1537817057
 30
0.0
 10
97.3036172882
 20
332.1592291038
 30
0.0
 10
97.295338452
 20
332.1861161455
 30
0.0
 10
97.2815197091
 20
332.2109019487
 30
0.0
 10
97.2702200676
 20
332.2303027265
 30
0.0
  0
SPLINE
  5
48D
100
AcDbEntity
  8
0
100
AcDbSpline
 62
7
  6
CONTINUOUS
 70
0
 71
3
 72
11
 73
7
 74
0
 42
0.0000001
 43
0.0000001
 44
0.0000000001
 40
0.0
 40
0.0
 40
0.0
 40
0.0
 40
0.3847447231
 40
0.5572942638
 40
0.7068040925
 40
1.0
 40
1.0
 40
1.0
 40
1.0
 10
142.6833598348
 20
334.4416273751
 30
0.0
 10
142.7016015539
 20
334.4416273751
 30
0.0
 10
142.7269621408
 20
334.4450838497
 30
0.0
 10
142.7625680432
 20
334.4483440007
 30
0.0
 10
142.7842222731
 20
334.4514850288
 30
0.0
 10
142.8384529777
 20
334.4416273751
 30
0.0
 10
142.8245518192
 20
334.4416273751
 30
0.0
  0
SPLINE
  5
48E
100
AcDbEntity
  8
0
100
AcDbSpline
 62
9
  6
CONTINUOUS
 70
0
 71
3
 72
9
 73
5
 74
0
 42
0.0000001
 43
0.0000001
 44
0.0000000001
 40
0.0
 40
0.0
 40
0.0
 40
0.0
 40
0.1795011598
 40
1.0
 40
1.0
 40
1.0
 40
1.0
 10
97.1503440446
 20
332.109464263
 30
0.0
 10
97.151036386
 20
332.1161104317
 30
0.0
 10
97.1538412099
 20
332.1532397857
 30
0.0
 10
97.1550032245
 20
332.1904618008
 30
0.0
 10
97.1558190815
 20
332.2209948947
 30
0.0
  0
SPLINE
  5
48F
100
AcDbEntity
  8
0
100
AcDbSpline
 62
9
  6
CONTINUOUS
 70
0
 71
3
 72
9
 73
5
 74
0
 42
0.0000001
 43
0.0000001
 44
0.0000000001
 40
0.0
 40
0.0
 40
0.0
 40
0.0
 40
0.292331604
 40
1.0
 40
1.0
 40
1.0
 40
1.0
 10
97.1558191864
 20
332.2209953629
 30
0.0
 10
97.1670022042
 20
332.2213275009
 30
0.0
 10
97.2052489907
 20
332.2228482924
 30
0.0
 10
97.243366848
 20
332.2267788217
 30
0.0
 10
97.2702200571
 20
332.2303030505
 30
0.0
  0
SPLINE
  5
490
100
AcDbEntity
  8
0
100
AcDbSpline
 62
9
  6
CONTINUOUS
 70
0
 71
3
 72
9
 73
5
 74
0
 42
0.0000001
 43
0.0000001
 44
0.0000000001
 40
0.0
 40
0.0
 40
0.0
 40
0.0
 40
0.2636004197
 40
1.0
 40
1.0
 40
1.0
 40
1.0
 10
97.1576804708
 20
332.3502996062
 30
0.0
 10
97.1707531361
 20
332.3511083899
 30
0.0
 10
97.220452565
 20
332.3514052964
 30
0.0
 10
97.2704109698
 20
332.3412813838
 30
0.0
 10
97.3042866204
 20
332.3274516802
 30
0.0
  0
SPLINE
  5
491
100
AcDbEntity
  8
0
100
AcDbSpline
 62
9
  6
CONTINUOUS
 70
0
 71
3
 72
9
 73
5
 74
0
 42
0.0000001
 43
0.0000001
 44
0.0000000001
 40
0.0
 40
0.0
 40
0.0
 40
0.0
 40
0.292621071
 40
1.0
 40
1.0
 40
1.0
 40
1.0
 10
97.3042866194
 20
332.3274517038
 30
0.0
 10
97.3143044343
 20
332.3233619404
 30
0.0
 10
97.3474824667
 20
332.30749992
 30
0.0
 10
97.3784155279
 20
332.2832309489
 30
0.0
 10
97.3917158752
 20
332.2607075059
 30
0.0
  0
SPLINE
  5
492
100
AcDbEntity
  8
0
100
AcDbSpline
 62
7
  6
CONTINUOUS
 70
0
 71
3
 72
9
 73
5
 74
0
 42
0.0000001
 43
0.0000001
 44
0.0000000001
 40
0.0
 40
0.0
 40
0.0
 40
0.0
 40
0.2530940257
 40
1.0
 40
1.0
 40
1.0
 40
1.0
 10
102.6641457385
 20
330.5568610252
 30
0.0
 10
102.5737609694
 20
330.4816985458
 30
0.0
 10
102.215980304
 20
330.1855322929
 30
0.0
 10
101.8549703726
 20
329.8931714497
 30
0.0
 10
101.5812408149
 20
329.6800516675
 30
0.0
  0
SPLINE
  5
493
100
AcDbEntity
  8
0
100
AcDbSpline
 62
7
  6
CONTINUOUS
 70
0
 71
3
 72
12
 73
8
 74
0
 42
0.0000001
 43
0.0000001
 44
0.0000000001
 40
0.0
 40
0.0
 40
0.0
 40
0.0
 40
0.3181222576
 40
0.6057287699
 40
0.8414230668
 40
0.9314819204
 40
1.0
 40
1.0
 40
1.0
 40
1.0
 10
101.5812408149
 20
329.6800516675
 30
0.0
 10
101.4251441979
 20
329.5585182924
 30
0.0
 10
101.1253375179
 20
329.3301119312
 30
0.0
 10
100.6967785472
 20
329.0305481069
 30
0.0
 10
100.3682476021
 20
328.8329828105
 30
0.0
 10
100.1406795505
 20
328.741593411
 30
0.0
 10
100.0416510475
 20
328.723153052
 30
0.0
 10
99.9991156735
 20
328.7256582544
 30
0.0
  0
SPLINE
  5
494
100
AcDbEntity
  8
0
100
AcDbSpline
 62
7
  6
CONTINUOUS
 70
0
 71
3
 72
9
 73
5
 74
0
 42
0.0000001
 43
0.0000001
 44
0.0000000001
 40
0.0
 40
0.0
 40
0.0
 40
0.0
 40
0.2177141767
 40
1.0
 40
1.0
 40
1.0
 40
1.0
 10
97.351371334
 20
331.7776612529
 30
0.0
 10
97.3433318221
 20
331.7729574719
 30
0.0
 10
97.3052857749
 20
331.7534082677
 30
0.0
 10
97.2618914787
 20
331.743456527
 30
0.0
 10
97.228422937
 20
331.743456527
 30
0.0
  0
SPLINE
  5
495
100
AcDbEntity
  8
0
100
AcDbSpline
 62
7
  6
CONTINUOUS
 70
0
 71
3
 72
9
 73
5
 74
0
 42
0.0000001
 43
0.0000001
 44
0.0000000001
 40
0.0
 40
0.0
 40
0.0
 40
0.0
 40
0.3063079101
 40
1.0
 40
1.0
 40
1.0
 40
1.0
 10
94.9810757953
 20
332.0754651848
 30
0.0
 10
94.9810757953
 20
332.0674934515
 30
0.0
 10
94.9799725549
 20
332.0414795336
 30
0.0
 10
94.9783554452
 20
332.0155086207
 30
0.0
 10
94.9771828503
 20
331.9974932466
 30
0.0
  0
SPLINE
  5
496
100
AcDbEntity
  8
0
100
AcDbSpline
 62
9
  6
CONTINUOUS
 70
0
 71
3
 72
9
 73
5
 74
0
 42
0.0000001
 43
0.0000001
 44
0.0000000001
 40
0.0
 40
0.0
 40
0.0
 40
0.0
 40
0.5527403037
 40
1.0
 40
1.0
 40
1.0
 40
1.0
 10
95.1599356978
 20
332.3502995922
 30
0.0
 10
95.1233343396
 20
332.3493398986
 30
0.0
 10
95.0556451962
 20
332.3324815617
 30
0.0
 10
95.0097047936
 20
332.2719409253
 30
0.0
 10
95.0073804409
 20
332.2424054217
 30
0.0
  0
SPLINE
  5
497
100
AcDbEntity
  8
0
100
AcDbSpline
 62
9
  6
CONTINUOUS
 70
0
 71
3
 72
9
 73
5
 74
0
 42
0.0000001
 43
0.0000001
 44
0.0000000001
 40
0.0
 40
0.0
 40
0.0
 40
0.0
 40
0.4801568216
 40
1.0
 40
1.0
 40
1.0
 40
1.0
 10
95.0073804409
 20
332.2424054217
 30
0.0
 10
95.0088533005
 20
332.2078167225
 30
0.0
 10
95.0469900016
 20
332.1360901057
 30
0.0
 10
95.121444539
 20
332.1102717255
 30
0.0
 10
95.1589173313
 20
332.1094642617
 30
0.0
  0
SPLINE
  5
498
100
AcDbEntity
  8
0
100
AcDbSpline
 62
9
  6
CONTINUOUS
 70
0
 71
3
 72
9
 73
5
 74
0
 42
0.0000001
 43
0.0000001
 44
0.0000000001
 40
0.0
 40
0.0
 40
0.0
 40
0.0
 40
0.2463244588
 40
1.0
 40
1.0
 40
1.0
 40
1.0
 10
95.1599356978
 20
332.3502995922
 30
0.0
 10
95.1605358086
 20
332.3305322888
 30
0.0
 10
95.1616081304
 20
332.2502627937
 30
0.0
 10
95.1623069933
 20
332.1698788554
 30
0.0
 10
95.1589173313
 20
332.1094642617
 30
0.0
  0
ELLIPSE
  5
499
100
AcDbEntity
  8
0
100
AcDbEllipse
 62
7
  6
CONTINUOUS
 10
213.4957654535
 20
331.9990653163
 30
0.0
 11
-0.0000044699
 21
0.500076164
 31
0.0
 40
0.0293209386
 41
-3.1415929157
 42
-1.5711011754
  0
ELLIPSE
  5
49A
100
AcDbEntity
  8
0
100
AcDbEllipse
 62
7
  6
CONTINUOUS
 10
214.7234680785
 20
333.7848485215
 30
0.0
 11
-0.0
 21
0.15
 31
0.0
 40
0.0293254064
 41
-1.5707963268
 42
-0.0
  0
ELLIPSE
  5
49B
100
AcDbEntity
  8
0
100
AcDbEllipse
 62
7
  6
CONTINUOUS
 10
213.4202654847
 20
333.6098218641
 30
0.0
 11
0.0000015645
 21
0.1750266574
 31
0.0
 40
0.0293209386
 41
4.712693829
 42
6.2831855693
  0
ELLIPSE
  5
49C
100
AcDbEntity
  8
0
100
AcDbEllipse
 62
7
  6
CONTINUOUS
 10
213.5052962106
 20
333.6098218641
 30
0.0
 11
0.0000015645
 21
0.1750266574
 31
0.0
 40
0.0293209386
 41
-1.5704914782
 42
0.0000002621
  0
ELLIPSE
  5
49D
100
AcDbEntity
  8
0
100
AcDbEllipse
 62
7
  6
CONTINUOUS
 10
214.7234680785
 20
331.5805333345
 30
0.0
 11
0.0
 21
0.15
 31
0.0
 40
0.0293254064
 41
-3.1415926536
 42
-1.5707963268
  0
ELLIPSE
  5
49E
100
AcDbEntity
  8
0
100
AcDbEllipse
 62
7
  6
CONTINUOUS
 10
214.7263838181
 20
332.2668043955
 30
0.0
 11
-0.0
 21
0.4
 31
0.0
 40
0.9980334035
 41
0.7680101238
 42
2.660034665
  0
ELLIPSE
  5
49F
100
AcDbEntity
  8
0
100
AcDbEllipse
 62
7
  6
CONTINUOUS
 10
214.3060157677
 20
332.9026950667
 30
0.0
 11
0.0
 21
0.35
 31
0.0
 40
0.9980334035
 41
-2.3735825298
 42
-1.5707963268
  0
ELLIPSE
  5
4A0
100
AcDbEntity
  8
0
100
AcDbEllipse
 62
7
  6
CONTINUOUS
 10
212.6542427888
 20
333.7848485216
 30
0.0
 11
-0.0
 21
0.15
 31
0.0
 40
0.0293254064
 41
-1.5707963268
 42
-0.0
  0
ELLIPSE
  5
4A1
100
AcDbEntity
  8
0
100
AcDbEllipse
 62
7
  6
CONTINUOUS
 10
218.5614672563
 20
331.0536693254
 30
0.0
 11
0.5002969288
 21
0.0009261502
 31
0.0
 40
0.0639000998
 41
0.0022091107
 42
1.5418341915
  0
ELLIPSE
  5
4A2
100
AcDbEntity
  8
0
100
AcDbEllipse
 62
7
  6
CONTINUOUS
 10
216.5208646861
 20
331.0536693254
 30
0.0
 11
0.5003087996
 21
0.0009521825
 31
0.0
 40
0.0638970551
 41
1.5410198814
 42
3.1099897087
  0
ELLIPSE
  5
4A3
100
AcDbEntity
  8
0
100
AcDbEllipse
 62
7
  6
CONTINUOUS
 10
212.236790478
 20
332.9026950667
 30
0.0
 11
0.0000000001
 21
0.35
 31
0.0
 40
0.9980334035
 41
-2.3735825297
 42
-1.5707963268
  0
ELLIPSE
  5
4A4
100
AcDbEntity
  8
0
100
AcDbEllipse
 62
7
  6
CONTINUOUS
 10
212.6571585284
 20
332.2668043955
 30
0.0
 11
0.0000000001
 21
0.4
 31
0.0
 40
0.9980334035
 41
0.7680101239
 42
2.6600346651
  0
ELLIPSE
  5
4A5
100
AcDbEntity
  8
0
100
AcDbEllipse
 62
7
  6
CONTINUOUS
 10
213.7977058282
 20
333.6098218641
 30
0.0
 11
0.0000015645
 21
0.1750266574
 31
0.0
 40
0.0293209386
 41
4.712693829
 42
6.2831855693
  0
ELLIPSE
  5
4A6
100
AcDbEntity
  8
0
100
AcDbEllipse
 62
7
  6
CONTINUOUS
 10
213.873205797
 20
331.9990653163
 30
0.0
 11
-0.0000044699
 21
0.500076164
 31
0.0
 40
0.0293209386
 41
-3.1415929157
 42
-1.5711011754
  0
ELLIPSE
  5
4A7
100
AcDbEntity
  8
0
100
AcDbEllipse
 62
7
  6
CONTINUOUS
 10
213.8827365541
 20
333.6098218641
 30
0.0
 11
0.0000015645
 21
0.1750266574
 31
0.0
 40
0.0293209386
 41
-1.5704914782
 42
0.0000002621
  0
ELLIPSE
  5
4A8
100
AcDbEntity
  8
0
100
AcDbEllipse
 62
7
  6
CONTINUOUS
 10
220.1420142952
 20
332.2668043955
 30
0.0
 11
-0.0000000001
 21
0.4
 31
0.0
 40
0.9980334035
 41
-2.6600346651
 42
-0.7680101239
  0
ELLIPSE
  5
4A9
100
AcDbEntity
  8
0
100
AcDbEllipse
 62
7
  6
CONTINUOUS
 10
215.3795653976
 20
331.2743550712
 30
0.0
 11
-0.0013095931
 21
0.1499999951
 31
0.0
 40
0.0293187071
 41
-3.0778443976
 42
-1.5710522973
  0
ELLIPSE
  5
4AA
100
AcDbEntity
  8
0
100
AcDbEllipse
 62
7
  6
CONTINUOUS
 10
214.7867105521
 20
332.2668043955
 30
0.0
 11
0.4004426777
 21
-0.0000000001
 31
0.0
 40
0.9988945293
 41
2.3388064507
 42
4.2308309919
  0
ELLIPSE
  5
4AB
100
AcDbEntity
  8
0
100
AcDbEllipse
 62
7
  6
CONTINUOUS
 10
214.3650480429
 20
332.9026950667
 30
0.0
 11
0.350387343
 21
-0.0000000001
 31
0.0
 40
0.9988945293
 41
-0.8027862029
 42
-0.0
  0
ELLIPSE
  5
4AC
100
AcDbEntity
  8
0
100
AcDbEllipse
 62
7
  6
CONTINUOUS
 10
218.8894657377
 20
331.0014558006
 30
0.0
 11
0.1500000079
 21
0.0003093316
 31
0.0
 40
0.1079351514
 41
-1.5899000142
 42
-0.0458414386
  0
ELLIPSE
  5
4AD
100
AcDbEntity
  8
0
100
AcDbEllipse
 62
7
  6
CONTINUOUS
 10
216.1450925307
 20
331.0014558006
 30
0.0
 11
0.1504512765
 21
0.0013048989
 31
0.0
 40
0.1072810197
 41
3.1331621148
 42
4.6317185161
  0
ELLIPSE
  5
4AE
100
AcDbEntity
  8
0
100
AcDbEllipse
 62
7
  6
CONTINUOUS
 10
212.5780694766
 20
331.5805333345
 30
0.0
 11
0.0
 21
0.15
 31
0.0
 40
0.0293254064
 41
-4.7123889804
 42
-3.1415926536
  0
ELLIPSE
  5
4AF
100
AcDbEntity
  8
0
100
AcDbEllipse
 62
7
  6
CONTINUOUS
 10
212.5780694766
 20
333.7848485215
 30
0.0
 11
0.0
 21
0.15
 31
0.0
 40
0.0293254064
 41
6.2831853072
 42
7.853981634
  0
ELLIPSE
  5
4B0
100
AcDbEntity
  8
0
100
AcDbEllipse
 62
7
  6
CONTINUOUS
 10
216.3995864118
 20
328.558324599
 30
0.0
 11
2.7499999799
 21
0.0051891824
 31
0.0
 40
0.064063985
 41
1.2218677973
 42
1.8608327962
  0
ELLIPSE
  5
4B1
100
AcDbEntity
  8
0
100
AcDbEllipse
 62
7
  6
CONTINUOUS
 10
213.428331758
 20
331.9990653163
 30
0.0
 11
0.0000044699
 21
0.500076164
 31
0.0
 40
0.0293209386
 41
-4.5480272189
 42
-3.1415923915
  0
ELLIPSE
  5
4B2
100
AcDbEntity
  8
0
100
AcDbEllipse
 62
7
  6
CONTINUOUS
 10
212.2958227532
 20
332.9026950667
 30
0.0
 11
0.350387343
 21
-0.0
 31
0.0
 40
0.9988945293
 41
-0.802786203
 42
-0.0
  0
ELLIPSE
  5
4B3
100
AcDbEntity
  8
0
100
AcDbEllipse
 62
7
  6
CONTINUOUS
 10
212.7174852624
 20
332.2668043955
 30
0.0
 11
0.4004426777
 21
0.0
 31
0.0
 40
0.9988945293
 41
2.3388064506
 42
4.2308309918
  0
ELLIPSE
  5
4B4
100
AcDbEntity
  8
0
100
AcDbEllipse
 62
7
  6
CONTINUOUS
 10
219.7671601033
 20
331.2743550712
 30
0.0
 11
0.0013095931
 21
0.1499999951
 31
0.0
 40
0.0293187071
 41
-3.0773324566
 42
-1.5705403563
  0
ELLIPSE
  5
4B5
100
AcDbEntity
  8
0
100
AcDbEllipse
 62
7
  6
CONTINUOUS
 10
213.7962413445
 20
333.6098218641
 30
0.0
 11
-0.0000015645
 21
0.1750266574
 31
0.0
 40
0.0293209386
 41
7.0684309152
 42
7.8536767854
  0
ELLIPSE
  5
4B6
100
AcDbEntity
  8
0
100
AcDbEllipse
 62
7
  6
CONTINUOUS
 10
213.8057721015
 20
331.9990653163
 30
0.0
 11
0.0000044699
 21
0.500076164
 31
0.0
 40
0.0293209386
 41
-4.5501085843
 42
-3.1415923915
  0
ELLIPSE
  5
4B7
100
AcDbEntity
  8
0
100
AcDbEllipse
 62
7
  6
CONTINUOUS
 10
214.6472947662
 20
333.7848485216
 30
0.0
 11
0.0
 21
0.15
 31
0.0
 40
0.0293254064
 41
-0.0
 42
1.5707963268
  0
ELLIPSE
  5
4B8
100
AcDbEntity
  8
0
100
AcDbEllipse
 62
7
  6
CONTINUOUS
 10
213.8812720704
 20
333.6098218641
 30
0.0
 11
-0.0000015645
 21
0.1750266574
 31
0.0
 40
0.0293209386
 41
7.0684309152
 42
7.8536767854
  0
ELLIPSE
  5
4B9
100
AcDbEntity
  8
0
100
AcDbEllipse
 62
7
  6
CONTINUOUS
 10
213.418801001
 20
333.6098218641
 30
0.0
 11
-0.0000015645
 21
0.1750266574
 31
0.0
 40
0.0293209386
 41
7.0684309152
 42
7.8536767854
  0
ELLIPSE
  5
4BA
100
AcDbEntity
  8
0
100
AcDbEllipse
 62
7
  6
CONTINUOUS
 10
213.5038317269
 20
333.6098218641
 30
0.0
 11
-0.0000015645
 21
0.1750266574
 31
0.0
 40
0.0293209386
 41
7.0684309152
 42
7.8536767854
  0
ELLIPSE
  5
4BB
100
AcDbEntity
  8
0
100
AcDbEllipse
 62
7
  6
CONTINUOUS
 10
62.6330607996
 20
331.2743550712
 30
0.0
 11
0.0397916368
 21
0.1446312885
 31
0.0
 40
0.9994996851
 41
-4.4440348274
 42
-2.9372427271
  0
ELLIPSE
  5
4BC
100
AcDbEntity
  8
0
100
AcDbEllipse
 62
7
  6
CONTINUOUS
 10
97.471809593
 20
331.8018626877
 30
0.0
 11
0.0064665967
 21
0.4071923936
 31
0.0
 40
0.0124004005
 41
-1.0680973086
 42
-0.6629455928
  0
ELLIPSE
  5
4BD
100
AcDbEntity
  8
0
100
AcDbEllipse
 62
7
  6
CONTINUOUS
 10
136.6363694296
 20
333.7848485216
 30
0.0
 11
-0.0
 21
0.15
 31
0.0
 40
0.9997223114
 41
0.0
 42
1.5707963268
  0
ELLIPSE
  5
4BE
100
AcDbEntity
  8
0
100
AcDbEllipse
 62
7
  6
CONTINUOUS
 10
66.0951239371
 20
333.7848485215
 30
0.0
 11
-0.0
 21
0.15
 31
0.0
 40
0.9997223114
 41
-0.0
 42
1.5707963268
  0
ELLIPSE
  5
4BF
100
AcDbEntity
  8
0
100
AcDbEllipse
 62
7
  6
CONTINUOUS
 10
66.0951239371
 20
331.5805333345
 30
0.0
 11
0.0
 21
0.15
 31
0.0
 40
0.9997223114
 41
-4.7123889804
 42
-3.1415926536
  0
ELLIPSE
  5
4C0
100
AcDbEntity
  8
0
100
AcDbEllipse
 62
7
  6
CONTINUOUS
 10
94.7562122934
 20
333.6098218641
 30
0.0
 11
-0.0530836679
 21
0.1667915567
 31
0.0
 40
0.9994731564
 41
5.9752105976
 42
7.5457023378
  0
ELLIPSE
  5
4C1
100
AcDbEntity
  8
0
100
AcDbEllipse
 62
7
  6
CONTINUOUS
 10
94.806137504
 20
333.6098218641
 30
0.0
 11
0.053083668
 21
0.1667915567
 31
0.0
 40
0.9994731564
 41
-1.2625170305
 42
0.3079747098
  0
ELLIPSE
  5
4C2
100
AcDbEntity
  8
0
100
AcDbEllipse
 62
7
  6
CONTINUOUS
 10
62.5043570624
 20
331.2743550712
 30
0.0
 11
-0.0397916369
 21
0.1446312885
 31
0.0
 40
0.9994996851
 41
1.3024421734
 42
2.6332476116
  0
ELLIPSE
  5
4C3
100
AcDbEntity
  8
0
100
AcDbEllipse
 62
7
  6
CONTINUOUS
 10
95.2134812988
 20
331.992481585
 30
0.0
 11
0.0758338114
 21
0.2382736524
 31
0.0
 40
0.9994731564
 41
-4.404109684
 42
-3.6188638138
  0
ELLIPSE
  5
4C4
100
AcDbEntity
  8
0
100
AcDbEllipse
 62
7
  6
CONTINUOUS
 10
68.6919220473
 20
333.7848485216
 30
0.0
 11
0.0
 21
0.15
 31
0.0
 40
0.9997223114
 41
-1.5707963268
 42
-0.0
  0
ELLIPSE
  5
4C5
100
AcDbEntity
  8
0
100
AcDbEllipse
 62
7
  6
CONTINUOUS
 10
139.2331675399
 20
333.7848485215
 30
0.0
 11
0.0
 21
0.15
 31
0.0
 40
0.9997223114
 41
-1.5707963268
 42
-0.0
  0
ELLIPSE
  5
4C6
100
AcDbEntity
  8
0
100
AcDbEllipse
 62
7
  6
CONTINUOUS
 10
139.2331675399
 20
331.5805333345
 30
0.0
 11
0.0
 21
0.15
 31
0.0
 40
0.9997223114
 41
-3.1415926536
 42
-1.5707963268
  0
ELLIPSE
  5
4C7
100
AcDbEntity
  8
0
100
AcDbEllipse
 62
7
  6
CONTINUOUS
 10
136.93880635
 20
332.9026950667
 30
0.0
 11
0.0
 21
0.35
 31
0.0
 40
0.0817061865
 41
-4.7123889804
 42
-3.9096027773
  0
ELLIPSE
  5
4C8
100
AcDbEntity
  8
0
100
AcDbEllipse
 62
7
  6
CONTINUOUS
 10
97.2406769792
 20
332.4413358378
 30
0.0
 11
0.1138971948
 21
0.3026064947
 31
0.0
 40
0.6956181904
 41
-1.0748249834
 42
0.2560736931
  0
ELLIPSE
  5
4C9
100
AcDbEntity
  8
0
100
AcDbEllipse
 62
7
  6
CONTINUOUS
 10
95.1312301792
 20
332.5456046778
 30
0.0
 11
-0.0112920244
 21
0.2083798029
 31
0.0
 40
0.7184767126
 41
-0.0389143321
 42
1.495515913
  0
ELLIPSE
  5
4CA
100
AcDbEntity
  8
0
100
AcDbEllipse
 62
7
  6
CONTINUOUS
 10
138.9512552775
 20
332.9026950667
 30
0.0
 11
-0.0
 21
0.35
 31
0.0
 40
0.0230643065
 41
-2.3735825299
 42
-1.5707963269
  0
ELLIPSE
  5
4CB
100
AcDbEntity
  8
0
100
AcDbEllipse
 62
7
  6
CONTINUOUS
 10
95.0811220446
 20
331.9990653163
 30
0.0
 11
0.1516676228
 21
0.4765473048
 31
0.0
 40
0.9994731564
 41
1.879075623
 42
3.4495673633
  0
ELLIPSE
  5
4CC
100
AcDbEntity
  8
0
100
AcDbEllipse
 62
7
  6
CONTINUOUS
 10
97.3799808943
 20
331.9990653163
 30
0.0
 11
-0.1516676227
 21
0.4765473048
 31
0.0
 40
0.9994731564
 41
-3.4495673632
 42
-1.8790756229
  0
ELLIPSE
  5
4CD
100
AcDbEntity
  8
0
100
AcDbEllipse
 62
7
  6
CONTINUOUS
 10
110.522153973
 20
333.6098218641
 30
0.0
 11
-0.053083668
 21
0.1667915567
 31
0.0
 40
0.9994731564
 41
-0.3079747098
 42
1.2625170306
  0
ELLIPSE
  5
4CE
100
AcDbEntity
  8
0
100
AcDbEllipse
 62
7
  6
CONTINUOUS
 10
110.5720791835
 20
333.6098218641
 30
0.0
 11
0.0530836679
 21
0.1667915567
 31
0.0
 40
0.9994731564
 41
-1.2625170307
 42
0.3079747096
  0
ELLIPSE
  5
4CF
100
AcDbEntity
  8
0
100
AcDbEllipse
 62
7
  6
CONTINUOUS
 10
110.2471694323
 20
331.9990653163
 30
0.0
 11
-0.1516676227
 21
0.4765473048
 31
0.0
 40
0.9994731564
 41
-3.4495673632
 42
-1.879075623
  0
ELLIPSE
  5
4D0
100
AcDbEntity
  8
0
100
AcDbEllipse
 62
7
  6
CONTINUOUS
 10
107.9483105826
 20
331.9990653163
 30
0.0
 11
0.1516676228
 21
0.4765473048
 31
0.0
 40
0.9994731564
 41
1.879075623
 42
3.4495673634
  0
ELLIPSE
  5
4D1
100
AcDbEntity
  8
0
100
AcDbEllipse
 62
7
  6
CONTINUOUS
 10
107.6234008314
 20
333.6098218641
 30
0.0
 11
-0.0530836679
 21
0.1667915567
 31
0.0
 40
0.9994731564
 41
-0.3079747096
 42
1.262517031
  0
ELLIPSE
  5
4D2
100
AcDbEntity
  8
0
100
AcDbEllipse
 62
7
  6
CONTINUOUS
 10
107.673326042
 20
333.6098218641
 30
0.0
 11
0.0530836679
 21
0.1667915567
 31
0.0
 40
0.9994731564
 41
-1.2625170307
 42
0.3079747096
  0
ELLIPSE
  5
4D3
100
AcDbEntity
  8
0
100
AcDbEllipse
 62
7
  6
CONTINUOUS
 10
108.0806698368
 20
331.992481585
 30
0.0
 11
0.0758338114
 21
0.2382736524
 31
0.0
 40
0.9994731564
 41
1.8790756232
 42
3.4495673633
  0
ELLIPSE
  5
4D4
100
AcDbEntity
  8
0
100
AcDbEllipse
 62
7
  6
CONTINUOUS
 10
107.8159606806
 20
331.8018626877
 30
0.0
 11
0.0255281809
 21
0.4071905063
 31
0.0
 40
0.0486658931
 41
-1.0652432149
 42
-0.6600914991
  0
ELLIPSE
  5
4D5
100
AcDbEntity
  8
0
100
AcDbEllipse
 62
7
  6
CONTINUOUS
 10
136.9043920005
 20
332.2668043955
 30
0.0
 11
0.0
 21
0.4
 31
0.0
 40
0.0817061865
 41
-2.660034665
 42
-0.7680101238
  0
ELLIPSE
  5
4D6
100
AcDbEntity
  8
0
100
AcDbEllipse
 62
7
  6
CONTINUOUS
 10
138.9609698798
 20
332.2668043955
 30
0.0
 11
-0.0
 21
0.4
 31
0.0
 40
0.0230643065
 41
7.0511954309
 42
8.9432199721
  0
ELLIPSE
  5
4D7
100
AcDbEntity
  8
0
100
AcDbEllipse
 62
7
  6
CONTINUOUS
 10
68.4197243872
 20
332.2668043955
 30
0.0
 11
-0.0
 21
0.4
 31
0.0
 40
0.0230643065
 41
0.7680101238
 42
2.660034665
  0
ELLIPSE
  5
4D8
100
AcDbEntity
  8
0
100
AcDbEllipse
 62
7
  6
CONTINUOUS
 10
66.363146508
 20
332.2668043955
 30
0.0
 11
0.0
 21
0.4
 31
0.0
 40
0.0817061865
 41
-2.660034665
 42
-0.7680101237
  0
ELLIPSE
  5
4D9
100
AcDbEntity
  8
0
100
AcDbEllipse
 62
7
  6
CONTINUOUS
 10
66.3975608574
 20
332.9026950667
 30
0.0
 11
0.0
 21
0.35
 31
0.0
 40
0.0817061865
 41
-4.7123889802
 42
-3.9096027773
  0
ELLIPSE
  5
4DA
100
AcDbEntity
  8
0
100
AcDbEllipse
 62
7
  6
CONTINUOUS
 10
68.4100097849
 20
332.9026950667
 30
0.0
 11
-0.0
 21
0.35
 31
0.0
 40
0.0230643065
 41
-2.3735825298
 42
-1.5707963268
  0
ELLIPSE
  5
4DB
100
AcDbEntity
  8
0
100
AcDbEllipse
 62
7
  6
CONTINUOUS
 10
102.5835131536
 20
328.558324599
 30
0.0
 11
2.7499999802
 21
-0.176177202
 31
0.0
 40
0.0018715496
 41
2.7929049111
 42
3.1123874105
  0
ELLIPSE
  5
4DC
100
AcDbEntity
  8
0
100
AcDbEllipse
 62
7
  6
CONTINUOUS
 10
108.0876144977
 20
332.4413358378
 30
0.0
 11
-0.1138971948
 21
0.3026064947
 31
0.0
 40
0.6956181904
 41
6.0271116141
 42
7.3580102905
  0
ELLIPSE
  5
4DD
100
AcDbEntity
  8
0
100
AcDbEllipse
 62
7
  6
CONTINUOUS
 10
94.7885993165
 20
333.6032762148
 30
0.0
 11
0.053083668
 21
0.1667915567
 31
0.0
 40
0.9994731564
 41
-1.2625170304
 42
0.3079747099
  0
ELLIPSE
  5
4DE
100
AcDbEntity
  8
0
100
AcDbEllipse
 62
7
  6
CONTINUOUS
 10
97.3624427068
 20
332.0056109657
 30
0.0
 11
-0.1516676227
 21
0.4765473048
 31
0.0
 40
0.9994731564
 41
-3.4495673633
 42
-1.879075623
  0
ELLIPSE
  5
4DF
100
AcDbEntity
  8
0
100
AcDbEllipse
 62
7
  6
CONTINUOUS
 10
97.687352458
 20
333.6032762148
 30
0.0
 11
0.053083668
 21
0.1667915567
 31
0.0
 40
0.9994731564
 41
-1.2625170307
 42
0.3079747096
  0
ELLIPSE
  5
4E0
100
AcDbEntity
  8
0
100
AcDbEllipse
 62
7
  6
CONTINUOUS
 10
68.6743838598
 20
333.7848485216
 30
0.0
 11
0.0
 21
0.15
 31
0.0
 40
0.9997223114
 41
-1.5707963268
 42
-0.1167806817
  0
ELLIPSE
  5
4E1
100
AcDbEntity
  8
0
100
AcDbEllipse
 62
7
  6
CONTINUOUS
 10
139.2156293523
 20
333.7848485215
 30
0.0
 11
0.0
 21
0.15
 31
0.0
 40
0.9997223114
 41
-1.5707963268
 42
-0.1167806817
  0
ELLIPSE
  5
4E2
100
AcDbEntity
  8
0
100
AcDbEllipse
 62
7
  6
CONTINUOUS
 10
139.2156293523
 20
331.5805333345
 30
0.0
 11
-0.0
 21
0.15
 31
0.0
 40
0.9997223114
 41
-2.4850641413
 42
-1.5707963268
  0
ELLIPSE
  5
4E3
100
AcDbEntity
  8
0
100
AcDbEllipse
 62
7
  6
CONTINUOUS
 10
110.2296312448
 20
332.0056109657
 30
0.0
 11
-0.1516676227
 21
0.4765473048
 31
0.0
 40
0.9994731564
 41
-3.4495673632
 42
-1.8790756229
  0
ELLIPSE
  5
4E4
100
AcDbEntity
  8
0
100
AcDbEllipse
 62
7
  6
CONTINUOUS
 10
110.554540996
 20
333.6032762148
 30
0.0
 11
0.0530836679
 21
0.1667915567
 31
0.0
 40
0.9994731564
 41
-1.2625170307
 42
0.3079747096
  0
ELLIPSE
  5
4E5
100
AcDbEntity
  8
0
100
AcDbEllipse
 62
7
  6
CONTINUOUS
 10
107.6557878544
 20
333.6032762148
 30
0.0
 11
0.053083668
 21
0.1667915567
 31
0.0
 40
0.9994731564
 41
-1.2625170304
 42
0.3079747099
  0
ELLIPSE
  5
4E6
100
AcDbEntity
  8
0
100
AcDbEllipse
 62
7
  6
CONTINUOUS
 10
97.654965435
 20
333.6098218641
 30
0.0
 11
-0.053083668
 21
0.1667915567
 31
0.0
 40
0.9994731564
 41
5.9752105974
 42
7.5457023381
  0
ELLIPSE
  5
4E7
100
AcDbEntity
  8
0
100
AcDbEllipse
 62
7
  6
CONTINUOUS
 10
97.7048906455
 20
333.6098218641
 30
0.0
 11
0.053083668
 21
0.1667915567
 31
0.0
 40
0.9994731564
 41
-1.2625170305
 42
0.3079747098
  0
ENDSEC
  0
SECTION
  2
OBJECTS
  0
DICTIONARY
  5
C
100
AcDbDictionary
280
0
281
1
  3
ACAD_GROUP
350
D
  3
ACAD_MLINESTYLE
350
17
  3
ACAD_LAYOUT
350
1A
  3
ACAD_PLOTSETTINGS
350
19
  3
ACAD_PLOTSTYLENAME
350
E
  0
DICTIONARY
  5
D
102
{ACAD_REACTORS
330
C
102
}
100
AcDbDictionary
280
0
281
1
  0
ACDBDICTIONARYWDFLT
  5
E
102
{ACAD_REACTORS
330
C
102
}
100
AcDbDictionary
281
1
  3
Normal
350
F
100
AcDbDictionaryWithDefault
340
F
  0
DICTIONARY
  5
17
102
{ACAD_REACTORS
330
C
102
}
100
AcDbDictionary
280
0
281
1
  3
Standard
350
18
  0
DICTIONARY
  5
19
102
{ACAD_REACTORS
330
C
102
}
100
AcDbDictionary
281
1
  0
DICTIONARY
  5
1A
102
{ACAD_REACTORS
330
C
102
}
100
AcDbDictionary
281
1
  3
Model
350
4E8
  3
Layout1
350
4E9
  0
ACDBPLACEHOLDER
  5
F
102
{ACAD_REACTORS
330
E
102
}
  0
MLINESTYLE
  5
18
102
{ACAD_REACTORS
330
17
102
}
100
AcDbMlineStyle
  2
STANDARD
 70
0
  3

 62
256
 51
90.0
 52
90.0
 71
2
 49
0.5
 62
256
  6
BYLAYER
 49
-0.5
 62
256
  6
BYLAYER
  0
LAYOUT
  5
4E8
102
{ACAD_REACTORS
330
1A
102
}
100
AcDbPlotSettings
  1

  2
none_device
  4

  6

 40
0.0
 41
0.0
 42
0.0
 43
0.0
 44
297.0
 45
420.0
 46
0.0
 47
0.0
 48
0.0
 49
0.0
140
0.0
141
0.0
142
1.0
143
1.0
 70
1024
 72
1
 73
0
 74
0
  7

 75
0
147
1.0
148
0.0
149
0.0
100
AcDbLayout
  1
Model
 70
0
 71
0
 10
0.0
 20
0.0
 11
297.0
 21
420.0
 12
0.0
 22
0.0
 32
0.0
 14
0.0
 24
0.0
 34
0.0
 15
0.0
 25
0.0
 35
0.0
146
0.0
 13
0.0
 23
0.0
 33
0.0
 16
1.0
 26
0.0
 36
0.0
 17
0.0
 27
1.0
 37
0.0
 76
0
330
20E
345
0
346
0
  0
LAYOUT
  5
4E9
102
{ACAD_REACTORS
330
1A
102
}
100
AcDbPlotSettings
  1

  2
none_device
  4

  6

 40
0.0
 41
0.0
 42
0.0
 43
0.0
 44
297.0
 45
420.0
 46
0.0
 47
0.0
 48
0.0
 49
0.0
140
0.0
141
0.0
142
1.0
143
1.0
 70
0
 72
1
 73
0
 74
0
  7

 75
0
147
1.0
148
0.0
149
0.0
100
AcDbLayout
  1
Layout1
 70
0
 71
1
 10
0.0
 20
0.0
 11
297.0
 21
420.0
 12
0.0
 22
0.0
 32
0.0
 14
0.0
 24
0.0
 34
0.0
 15
0.0
 25
0.0
 35
0.0
146
0.0
 13
0.0
 23
0.0
 33
0.0
 16
1.0
 26
0.0
 36
0.0
 17
0.0
 27
1.0
 37
0.0
 76
0
330
20F
345
0
346
0
  0
ENDSEC
  0
EOF
